intro
Am F Dm E Am
e|-------------------------------------------------------------------------|
h|-------------------------------------------------------------------------|
g|--------------------------------------3-4-5------10-7---7-10-9---9-10----|
d|-7---------------------------3--3-5-6-------10~--10-7-7---10-9-9---10----|
a|-7--------7-----7--7-7--7-7--3--------------8-~--8--5-----8--7-----8--7~-|
e|-5--5-7-8---8-7-5--5-5--5-5--1----------------------------------------5~-|
C D
e|----------|
h|----------|
g|----------| - этот рифф 2 раза
d|-5-5--7-7-|
a|-3-3--5-5-|
e|----------|
Am
e|----------------------------------------------------------|
h|----------------------------------------------------------|
g|----------------------------------------------------------|
d|----------------------------------------------------------|
a|-7~------долго-звучит-------------------------------------|
e|-5~------потом-какая-то фишка-----------------------------|
Am F
e|---|---------------------|---|----------------------------|
h|---|---------------------|---|----------------------------|
g|---|---------------------|---|----------------------------|
d|---|-------------------|---|--------------------------|
a|-7-|---------------------|-3-|----------------------------|
e|-5-|---------------------|-1-|----------------------------|
За дверь я выгнан в ночь, но выйти вон и сам не прочь,
Dm Hdim
e|---|-------------------------|----------------------------|
h|---|-------------------------|----------------------------|
g|---|-------------------------|----------------------------|
d|-7-|-----------------------|----------------------------|
a|-5-|-------------------------|-5--7-8----7-5--------------|
e|---|-------------------------|---------------8---7---5--4-|
Ты без меня хоть застрелись,все решат,что это твой каприз,
E7
e|--------------------|
h|--------------------|
g|--------------------|
d|--------------------|
a|--5-----------------|
e|-----8-7-5-4--1--0--|
Повтори его на бис!
Am
Да, я уйду, и мне плевать,
F
Ты знаешь, где меня искать,
Dm
В квартале красных фонарей
Bdim
Я смогу тебя забыть быстрей -
E7
Это дело двух ночей.
Припев:
F Ab Am
e|--------------------------------------------------------------------|
h|--------------------------------------------------------------------|
g|--------------------------------------------------------------------|
d|--------------------------------------------------------------------|
a|-3--3---3-3----6---6---6---6-6--6--7--0-2-0-3-0-4-0-5-0-4-0-3-2/3/2-|
e|-1--1---1-1----4---4---4---4-4--4--5--------------------------------|
Но хватит врать и все время хитрить,
F Ab E F E F7
e|--------------------------------------------------------------------|
h|--------------------------------------------------------------------|
g|--------------------------------------------------------------------|
d|--------------------------------------------------------------------|
a|-3--3-----3--3--6---6--6--6--6--6-2--2--2-3-3-3-3-2--2-3-3-3--------|
e|-1--1-----1--1--4---4--4--4--4--4-0--0--0-1-1-1-1-0--0-1-1-1--------|
Здесь все за деньги несложно купить.
E Am Dm G Am
e|---------------------------------------|
h|---------------------------------------|
g|---------------------------------------|
d|---------7--7-7-7----------------------|
a|-2-7-7---5--5-5-5-5-5--7--7-7----------|
e|-0-5-5------------3-3--5--5-5----------|
Кака-я грязь, кака-я власть,
E Am Dm Em Am
e|---------------------------------------|
h|---------------------------------------|
g|---------------------------------------|
d|-----------7--7---7-7---9---9----------|
a|-2--7----7-5--5---5-5---7---7-7--7-7---|
e|-0--5----5--------------------5--5-5---|
И как при-ятно в эту грязь упасть,
E Am Dm G Am
e|---------------------------------------|
h|---------------------------------------|
g|---------------------------------------|
d|--------------7---7-7-7----------------|
a|-2--7------7--5---5-5-5-5--5---7--7-7--|
e|-0--5------5------------3--3---5--5-5--|
Послать к чертям манеры и контроль,
Am Dm F E F E F7
e|-----------------------------------------------------------------------|
h|-----------------------------------------------------------------------|
g|-----------------------------------------------------------------------|
d|----7-----7--7--7--7-9-10-10-10----10-10-10----------------------------|
a|-7--5-----5--5--5--5-7-8--8--8-----8--8--8--2--2--2-3-3-3-3-2--2-3-3-3-|
e|-5------------------------------------------0--0--0-1-1-1-1-0--0-1-1-1-|
Сорвать все маски и быть просто со-бой...
II
Вокруг - живой товар,
В сердцах - мороз, в глазах - пожар,
Я выбрал ту, что выше всех,
Мой маневр имел большой успех
В доме сладостных утех.
Она молчит, она не пьет,
Не теребит, не пристает
Она полслушна и умна,
Все умеет, что уметь должна,
Счет оплачен мой сполна.
Припев




Ваше мнение



Капча