Aria - Dead zone (1987 - On service at forces of evil / the Hero of Asphalt)

Intro 2x:
E-----------------------------------------------------
B-----------------------------------------------------
G--------4----------9------------4----------9---------
D--------4---5-4-3--9---5-4-3-4--4---5-4-3--9---5-3-4-
A--------2----------7------------2----------7---------
E-----------------------------------------------------

Bridge:
Hm A G Hm G D C#m A Hm
E--------------------------------------------------
B--------------------------------------------------
G--4-4------------4-4------7--6------4-------------
D--4-4--7-7--5-5--4-4--5---7--6---7--4-------------
A--2-2--7-7--5-5--2-2--5---5--4---7--2-------------
E-------5-5--3-3-------3----------5----------------

Hm A G Hm G D Em F F#
E--------------------------------------------------
B--------------------------------------------------
G--4-4------------4-4------7-----9--10--11---------
D--4-4--7-7--5-5--4-4--5---7-----9--10--11---------
A--2-2--7-7--5-5--2-2--5---5-----7--8--- 9---------
E-------5-5--3-3-------3---------------------------




Ваше мнение



Капча