Chimera (2001 - Chimera) - Band From Russia

||-------------------------------------------------||---------||
||-------------------------------------------------||---------||
||------11-10-11-13--------10-8-10-11-8~-----8/6---||---68---||
||-9-----------------8---------------------------9-||--9------||
||-9-----------------8-----------------------------||---------||
||-------------------------------------------------||---------||

Riff D#
||-------------------------------------|--------------------------------------
||-------------------------------------|--------------------------------------
||-------------------------------------|--------------------------------------
||-8--------8--------11-------11-------|--------------------------------------
||-6-6-6-66-6-6-6-66-9-9-9-99-9-9-9-99-|-9--------7--------8--------6--6--6---
||-------------------------------------|-7-7-7-77-5-5-5-55-6-6-6-66-4--4--4---

Riff C#
||---------------------------------|-------------------------------
||---------------------------------|-------------------------------
||---------------------------------|-------------------------------
||-6-6-6-4-6-6-6-4-6-6-6-4-6-6-6-4-|-----------------7-----7-----7-
||-4-4-4-4-4-4-4-4-4-4-4-4-4-4-4-4-|-9-----9-----9---5-5-5-5-5-5-5-
||---------------------------------|-7-7-7-7-7-7-7-7---------------

||---------------------------------|------------------------------------------
||---------------------------------|------------------------------------------
||---------------------------------|------------------------------------------
||-6-6-6-4-6-6-6-4-6-6-6-4-6-6-6-4-|-----------------7---7-----7---7----7-8-9/
||-4-4-4-4-4-4-4-4-4-4-4-4-4-4-4-4-|-9-----9-----9---5---5-6---5---5-6--5-6-7/
||---------------------------------|-7-7-7-7-7-7-7-7-------4---------4--------

Chorus.
||-------------------------------------|--------------------------------------
||-------------------------------------|--------------------------------------
||-8-~~--------------9-~~--------------|-8-~~----------------9-~~-------------
||-8-~~--------------9-~~--------------|-8-~~----------------9-~~-------------
||-6-~~--------------7-~~--------------|-6-~~----------------7-~~-------------
||-------------------------------------|--------------------------------------

||-------------------------------------|--------------------------------------
||-------------------------------------|--------------------------------------
||-------------------8-~~--------------|-----------7-~~------8-~~-------------
||-9-~~--------------8-~~--------------|-6-~~------7-~~------8-~~-------------
||-9-~~--------------6-~~--------------|-6-~~------5-~~------6-~~-------------
||-7-~~--------------------------------|-4-~~---------------------------------




Ваше мнение



Капча