From: Stirliz
Версия песни из игры "Дальнобойщики-2" (или альбом "2000 и 1 ночь")
Играется на 4/4, желательно в две гитары
(1я по табулатуре, 2я по аккордам перебором 1-2-3-2).
Intro:
Fm# E D C# Fm# E D E
1|5-----5-|4-----4-|2-----2-|1---4-0-|5-----5-|4-----4-|2---4---|2-------||
2|--7-----|--5-----|--3-----|--2-----|--7-----|--5-----|--------|--------||
3|----6---|----4---|----2---|--------|----6---|----4---|--------|--------||
E D C# C# E D C# C#
1|5-4-----|4-2-----|-1------|--------|5-4-----|4-2-----|1-------|--------||
2|--------|--------|--------|--------|--------|--------|--------|--------||
3|--------|--------|--------|--------|--------|--------|--------|--------||
1 куплет
Fm# E D C#
1|-5--------5-|-4--------4-|-2-------2-|-1-----4--0-||
2|----7-------|----5-------|----3------|----2-------||
3|-------6----|-------4----|-------2---|------------||
Снова брошен в окна лунный свет,
Fm# E D E
1|-5--------5-|-4--------4-|-2-----4-----|-2--------||
2|----7-------|----5-------|-------------|----------||
3|-------6----|-------4----|-------------|----------||
Дом мой сонный серебром одет.
E D C# C# E D C# C#
1|5-4-----|4-2-----|1-------|--------|5-4-----|4-2-----|1-------|--------||
2|--------|--------|--------|--------|--------|--------|--------|--------||
3|--------|--------|--------|--------|--------|--------|--------|--------||
У-у у-у у-у-у, у-у у-у у-у-у.
Fm# E D C#
Лунной кисти не достичь глубин,
Fm# E D E
Эту бездну знаю я один.
E D C# C#
У-у, у-у, у-у-у.
E D C# C#
У-у, у-у, у-у-у.
Припев (скорее всего неправильно, припев не сам подбирал)
D Gm
Всё, всё как вчера!
D Gm D-C#
Всё, всё как вчера!
D B
Всё, всё как вчера,
Fm A A7
Но без тебя - а - а - а!
2 куплет (так же как и первый, только фоновая гитара играет арпеджио (вниз по всем струнам)).
Ревность, жалость - словно заодно...
Птицей скорби падаю на дно.
У-у, у-у, у-у-у.
У-у, у-у, у-у-у.
Припев.
Соло (я его не знаю, скорее всего то же, что и в старой версии, только на квинту выше).
Припев
Внимание!!!
Аккорды, используемые в песне, зажимаются толко (!) на трех первых струнах!!!
Fm# [xxx576]
E [xxx454]
D [xxx232]
C# [xxx121]




Ваше мнение



Капча