АРИЯ - А­віеаібв
Tabbed by Ostapchuk Vladimir
Main riff :
E|
H||
G---------0---|---------0---||
D------4------|------4------||
A---2---------|---3---------||
E-------------|-------------||
Intro, I Verse - main riff 6 times.
Chorus :
E------------------------------------------|||
H------------------------------------------|-------------||
G------------------------------------------|---------0---||
D--------------------------0---------2-----|------4------||
A------2---------4------2-----2---4-----4--|---2---------||
E---3-----3---5-----5----------------------|-------------||
E--------------------------------------------------------||
H--------------------------------------------------------||
G--------------------------------------------------------||
D--------------------------0-----------------------------||
A------2---------4------2-----2---4----------------------||
E---3-----3---5-----5------------------------------------||
II Verse : main riff 4 times.
E|




Ваше мнение



Капча