heres the solo to TAKE A LONG LINE-
E|-----------------------------------------------|
B|-14-12-10-13-13-12-10-12-------12--------------|
G|-------------------------14-13----14-13-11-10--|
D|-----------------------------------------------|
A|-----------------------------------------------|
E|-----------------------------------------------|

E|-----------------------12-12-11----------------------|
B|-14-12-10-12-13-12-10-----------------12-------------|
G|--------------------------------14-13----14-13-11-10-|
D|-----------------------------------------------------|
A|-----------------------------------------------------|
E|-----------------------------------------------------|

EMAIL- [email protected]




Ваше мнение



Капча