D(V) E(VII) A(V)

A Amaе7 Dmaе7
Давай возвратимся с тобой нашей старой дорогой
A Amaе7 Dmaе7
Пройдем от порога до солнца - потратим денек
(*) Нm D
Посмотрим кто ходит теперь нашей старой дорогой
(*) Нm F#m
Хранит ли дорожная пыль следы наших ног

Ты помнишь, как дорога петляла, но мы не ошиблись ни разу
Ни дней ни подруг не считая под хлеб и вино
Мы шли не заботясь о цели и вышли на трассу
И сели в машину, ах как это было давно

Бас на 6-ой струне: ||--9-7-5-7--5--

D(V) E(VII)
Припев: Встань на пороге с заплечным пешком
A(V) F#m
По старой дороге ходили пешком
D(V) E(VII)
Она убегала к тенистым кустам
A(V) F#m
Она пролегала по дивным местам

Но пахнут летящие дни не травой, а бензином
И вместо беседы лишь холод заученных фраз
И судят о мне и тебе по нашим машинам
Остатки свободы сменив на тормоз и газ

Пр.
Solo
Пр.
Пр.
Пр.

D(V) E(VII) A(V)
Концовочка:
A
1 ||-0-9b10b9-7-5-7-5---------------0---
||------------------7-5-7-5-5\2-0-2---
||--------------------------------2---
||--------------------------------2---
||--------------------------------0---
6 ||--------------------------------0---

Аккорды:
(*) Amaе7 Dmaе7
1 ||---2------0-------2----
||---3------2-------2----
||---4------1-------2----
||---0------2-------0----
||---x------0-------0----
6 ||---x------x-------x----




Ваше мнение



Капча