From: Dymon [email protected]
Когда ее нет
Intro:
Am9 Am7 Abm9\Am9 Gm9 Gm7 A7 Dm7
E----------7-7-5-7--5-7--5-7-6\7--5-5-3-5--3-5----3--3-3-3-6-5--5--5------8--|
H--5-6-5---5-5-5-5--5-5--5-5-4\5--3-3-3-3--3-3----2--2-2-2------6--6--5-6----|
G----------5-5-5-5--5-5--5-5-4\5--3-3-3-3--3-3----2--2-2-2------5--5---------|
D----------5-5-5-5--5-5--5-5-4\5--3-3-3-3--3-3----2--2-2-2------7--7---------|
A---------------------------------5-5-5-5--5-5----0--0-0-0------5--5---------|
E----------5-5-5-5--5-5--5-5-4\5--3-3-3-3--3-3-------------------------------|
G7 G5+ C H/C Fmaj7 Dm7 Em7 Am9 Am7
E--3--3---3--3---0-0--0-0---0-0--0-0---5-7---8--8---7-7--7-10-----7-7-5-7----|
H--3--3---4--4---1-1--1-1---1-1--1-1---------6--6---8-8--8-8------5-5-5-5----|
G--4--4---4--4---0-0--0-0---2-2--2-2---------5--5---7-7--7-7------5-5-5-5----|
D--3--3---5--5---2-2--------3-3--3-3---------7--7---9-9--9-9------5-5-5-5----|
A--5--5---3--3---3-3--2-2---3-3--3-3---------5--5---7-7--7-7-----------------|
E--3--3-----------------------------------------------------------5-5-5-5----|
Am9 Am7\Am9 Am9 Am7\Am9
Она любит больных и бездомных собак
Gm9 Gm7\Gm9 Gm7\Gm9
И не хочет терпеть людей.
A7 Dm7
Ей открыта ночь и не нужен день.
G7 G5+ C H/C Fmaj7
Она любит уйти в закат, но всегда на страже рассвет.
Dm7 Em7 Am9 Am9 Am7\Am9
Отчего же ты сам не свой, когде ее нет.
Она бродит по городу вслед за дождем
То и дело меняя маршрут.
И ее не застать не там и не тут.
Она может сказать:"До завтра!" и исчезнуть на несколько лет.
Пр.
Она сама по себе, она не хочет скрывать
Даже самых простых вещей.
Жаль, что ночь без нее стала ничьей.
Жаль, что голос ее растаял, как дым ее сигарет.




Ваше мнение



Капча