Alkaline Trio - The Metro
Tabbed By: Chris
EMail: [email protected]
Intro
G|---------------------------------------------------------------------------|
D|---------------------------------------------------------------------------|
A|-2>---222222222222---------------------------------------------------------|
E|---------------------------------------------------------------------------|
Pre-Verse x4
G|---------------------------------------------------------------------------|
D|---------------------------------------------------------------------------|
A|----22-------55-00-33-22---------------------------------------------------|
E|-00----22-33---------------------------------------------------------------|
Verse x8
G|---------------------------------------------------------------------------|
D|---------------------------------------------------------------------------|
A|----22-------55-00-33-22---------------------------------------------------|
E|-00----22-33---------------------------------------------------------------|
Chorus (the only part im not sure about)
G|---------------------------------------------------------------------------|
D|---------------------------------------------------------------------------|
A|-2>-5>----8>-2>-5>-----2>-5>----8>-2>-5555------2>-------------------------|
E|-------3>----------3>>-------3>------------3333----------------------------|
Fill After Second Chorus
G|---------------------------------------------------------------------------|
D|---------------------------------------------------------------------------|
A|-222222222222--------------------------------------------------------------|
E|---------------------------------------------------------------------------|
> = x8
>> = x16
Order:
Intro
Pre-Verse
Verse
Chorus
Pre-Verse
Verse
Chorus
Fill
Verse
Chorus
Pre-Verse
Verse
Chorus





Ваше мнение



Капча