Band: Alkaline Trio
Song: Hell Yes
Album: From Here to Infirmary
Tabbed by: Iwasjustcleaningitanditwentoff
This is another song from thwe new album and its one of the best ones.
Standard tunind (EADGBe) The B5 chord can be played how i have shown it
(x244xx) or as (799xxx) it doesnt really matter.
Intro
e|---------------------------------------------------------------------------------|
B|---------------------------------------------------------------------------------|
G|-9-9-9-9-9--14-14-14-14--13-13--11--13-13-13-13--16-16--14-14--13-13-11-11-11-11-|
D|-9-9-9-9-9--x--x--x--x---x--x---x---x--x--x--x---x--x---x--x---x--x--x--x--x--x--|
A|-7-7-7-7-7--12-12-12-12--11-11--9---11-11-11-11--14-14--12-12--11-11-9--9--9--9--|
E|---------------------------------------------------------------------------------|
Verse (listen to song to figure this bit out)
e|------------------------------------------------------------------------|
B|------------------------------------------------------------------------|
G|----------------------------------------4-4-4-4-------------------------|
D|---2-2-2-2-2-2-2-2-2-2-2-2-2-2-2-2-2----4-4-4-4----7-7-7-7-7-7-7-7-7----|
A|---2-2-2-2-2-2-2-2-2-2-2-2-2-2-2-2-2----2-2-2-2----7-7-7-7-7-7-7-7-7----|
E|---0-0-0-0-0-0-0-0-0-0-0-0-0-0-0-0-0---------------5-5-5-5-5-5-5-5-5----|
p.m. --------------------------------- ------- -----------------
Verse part 2
e|---------------------------------------------|
B|---------------------------------------------|
G|---4-4-4-4-----------------------------------|
D|---4-4-4-4-----7-7-7-7-7-7-7-7-7-------------|
A|---2-2-2-2-----7-7-7-7-7-7-7-7-7-------------|
E|---------------5-5-5-5-5-5-5-5-5-------------|
Chorus
e|--------------------------------------------------------------------------|
B|--------------------------------------------------------------------------|
G|---9-9-9-9-9-9-9-9-9-9-9-9-9-9-9-9-----6-6-6-6-6-6-6----4-4-4-4-4-4-------|
D|---9-9-9-9-9-9-9-9-9-9-9-9-9-9-9-9-----6-6-6-6-6-6-6----4-4-4-4-4-4-------|
A|---7-7-7-7-7-7-7-7-7-7-7-7-7-7-7-7-----4-4-4-4-4-4-4----2-2-2-2-2-2-------|
E|--------------------------------------------------------------------------|
Bridge
e|----------------------------------------|
B|----------------------------------------|
G|----------------------4-4-4-4-4-4-4-4-4-|
D|--7-7-7-7-7-7-7-7-7---4-4-4-4-4-4-4-4-4-|
A|--7-7-7-7-7-7-7-7-7---2-2-2-2-2-2-2-2-2-|
E|--5-5-5-5-5-5-5-5-5---------------------|
p.m.----------------- -----------------
End
e|-----------------------------------------|
B|-----------------------------------------|
G|-----------------------------------------|
D|-----7-(LR)------------7-7--2-(LR)-------|
A|-----7-(LR)------------7-7--2-(LR)-------|
E|-----5-(LR)------------5-5--0-(LR)-------|
Song order
Intro (clean)
Intro (distorted)
Verse x4
Verse part 2 x1
Intro x2
Verse x4
verse part 2 x1
Chorus x2
Intro x2
Verse x4
Verse part 2 x1
Chorus x2
Bridge x4
Bridge (no p.m) x1
Intro x2
Chorus x4
End





Ваше мнение



Капча

Рекомендуем