This song is a great song of the new album and is a
Little different than all the other songs, i guess
Matt has more time to focus on the guitar parts when
He doesn't have to sing the song...
Enjoy,
Jim
Intro:
-------------------------------------------------------|
-------------------------------------------------------|
-6-6-6-6--4-4-4--2-2-2--4-4-4-4------------------------|
-6-6-6-6--4-4-4--2-2-2--4-4-4-4---6-6--4-4--1-1--2-2---|
-4-4-4-4--2-2-2--0-0-0--2-2-2-2---0-0--0-0--0-0--0-0---|
-------------------------------------------------------|
--------------------------------------------|
--------------------------------------------|
-6-6-6-6--4-4-4--2-2-2-2-2-2----------------|
-6-6-6-6--4-4-4--2-2-2-2-2-2---7-7-7--6-6---|
-4-4-4-4--2-2-2--0-0-0-0-0-0---0-0-0--0-0---|
--------------------------------------------|
First Verse Riff:
-----------------------|
-----------------------|
-4-4--------------2----|
-4-4--------------2----|
-2-2------/4------0----|
-----------------------|
Fill 1:
-----------------------------------------|
-----------------------------------------|
-4-4-4-4---6-6-6-6---2-2-2-2-2-2-2-2-----|
-4-4-4-4---6-6-6-6---2-2-2-2-2-2-2-2-----|
-2-2-2-2---4-4-4-4---0-0-0-0-0-0-0-0-----|
-----------------------------------------|
Verse:
-----------------------------------------------------|
-----------------------------------------------------|
-4-4-4-4---6-6-6-6---2-2-2-2-------------------------|
-4-4-4-4---6-6-6-6---2-2-2-2---9-9-9--7-7-7--6-6-6---|
-2-2-2-2---4-4-4-4---0-0-0-0---0-0-0--0-0-0--0-0-0---|
-----------------------------------------------------|
--------------------------------------------|Play two times -----
--------------------------------------------|then end with -----
-4-4-4-4---6-6-6-6--------------------------|this chord: --4--
-4-4-4-4---6-6-6-6---2-2-2-2---4-4-4--2-2---| --4--
-2-2-2-2---4-4-4-4---0-0-0-0---0-0-0--0-0---| --2--
--------------------------------------------| -----
Chorus:
--------------------------------------------------------------------|
--------------------------------------------------------------------|
----------9-9-9-8-8-9-9-9-9-9-9--6-6-6-6--4-4-4-4/6-6-4-4--2-2-2-2--|
-2-2-2-2--x-x-x-x-x-x-x-x-x-x-x--6-6-6-6--x-x-x-x-x-x-x-x--2-2-2-2--|
-2-2-2-2--7-7-7-6-6-7-7-7-7-7-7--4-4-4-4--2-2-2-2/4-4-2-2--0-0-0-0--|
-0-0-0-0------------------------------------------------------------|
-----------------------------------------------------------
-----------------------------------------------------------
----------9-9-9-8-8-9-9-9-9-9-9--6-6-6-6--4-4-4-4/6-6-4-4--
-2-2-2-2--x-x-x-x-x-x-x-x-x-x-x--6-6-6-6--x-x-x-x-x-x-x-x--
-2-2-2-2--7-7-7-6-6-7-7-7-7-7-7--4-4-4-4--2-2-2-2/4-4-2-2--
-0-0-0-0---------------------------------------------------
------------------------------------|
------------------------------------|
------------------9-9-9-9-8-8-9-9---|
-2-2-2-2-4-4-2-2--x-x-x-x-x-x-x-x---|
-0-0-0-0-0-0-0-0--7-7-7-7-6-6-7-7---|
------------------------------------|
Interlude:
----------------------------------------------|
----------------------------------------------|
--------------------------------9-9-9-9-9-9---|
-1-1--2-2--4-4--2-2--1-1--4-4---9-9-9-9-9-9---|
-0-0--0-0--0-0--0-0--0-0--0-0---7-7-7-7-7-7---|
--------------------------------7-7-7-7-7-7---|





Ваше мнение



Капча

Рекомендуем