ALKALINE TRIO-COOKING WINE
Tabbed By Ben H (PunkAsPhuck)

intro / verse
e|------------------------------------------------------------------------
B|------------------------------------------------------------------------
G|--7----------------------7----------------------------------------------
D|--7--7--5---5---5--------7--7-------4-4--5------------------------------
A|-5--7--5-/-4--5--------5--7-------4-4--5-------------------------------
E|-----5--3---3---3-----------5-------2-2--3------------------------------

intro 2
e|------------------------------------------------------------------------
B|------------------------------------------------------------------------
G|--7---------------------------------------------------------------------
D|--7------7---------------5----------------------------------------------
A|--5------7---------------5----------------------------------------------
E|---------5---------------3----------------------------------------------

chorus
e|------------------------------------------------------------------------
B|------------------------------------------------------------------------
G|--7-7-7-7--------------------7-7-7-7----------9-9-9-9-------------------
D|--X-X-X-X--------------------7-7-7-7----------9-9-9-9-------------------
A|--5-5-5-5--------------------5-5-5-5----------7-7-7-7-------------------
E|------------------------------------------------------------------------





Ваше мнение



Капча