Вступление
4 -------------5-5-5------------------------------------
5 -5-5-5-------------5-5-5---2-2-2-5-5-5-5-5-5-3-3-2-3-2
6 -------3-3-3------------------------------------------
Куплет 1.
4 ------------5-5-5---------------------------7-7-7-------
5 5-5-5------------------5-5-5----2-2-2-5-5-5-------2-2-2-
6 ------3-3-3---------------------------------------------
Крыши домов дрожат под тяжестью дней
4 ------7-7-7------------3-3-3------------------5-5-5-------
5 5-5-5-------5-5--2-2-2-------2-2--5-5-5-------------5-5-5-
6 ----------------------------------------3-3-3-------------
Небесный пастух пасет облака
(далее перый куплет играется также)
Город стреляет в ночь дробью огней
Но ночь сильней, ее власть велика.
Припев.
3 -----------------------------------------------------5---
4 ------------------------------------------------------5--
5 -------------------------------------5-5-5-------------3-
6 1--1--1--1--1--1---0--0--0--0--0--0--------3-(9 раз)-----
А тем, кто ложится спать, спокойного сна
3 -------------------------------------------------5---
4 --------------------------------------------------5--
5 ------------------2-2-3-2--------5-5-5-------------3-
6 1-1-1-1-1-1-0-0-0-----------------------3-(9 раз)----
Спокойная ночь
(последний раз после "спокойная ночь" идет проигрыш - Am|Am|G|G|Dm|Dm|Am|Am
далее второй и третий куплет по аккордам)
Куплет 2.
Am G
Я ждал это время, и вот это время пришло
Dm Am
Те, кто молчал, перестали молчать
Am G
Те, кому нечего ждать, садятся в седло
Dm Am
Их не догнать, уже не догнать
Припев. -----------------5---
------------------5--
F E Am или 5-5-5--------------3-
А тем, кто ложится спать, спокойного сна ------3-(9 раз)------
F Е ---------------------------------5---
----------------------------------5--
2-2-3-2--------5-5-5---------------3-
-----------------------3-(9 раз)-----
Спокойная ночь
Проигрыш - Am|Am|G|D C H C|
Куплет 3.
Соседи приходят, им слышится стук копыт
Тревожит их сон, мешает уснуть
Те, кому нечего ждать, отправляются в путь
Те, кто спасен, те, кто спасен.




Ваше мнение



Капча