From: [email protected](Веталь) [email protected]

Intro:
Am G Am F G Am
E--0---------------0---------------------------------
H-----1-3----3-3-----1--0-----1--------0-------------
G2------------------------2------2--------0---0-2---- x2
D-----------------------------------3--------2-------
A----------------------------------------------------
E----------------------------------------------------

Am
Благослови на войну,
G
Дом сохрани и спаси.
F
Так собирались в поход
G
Ратные люди Руси.
Am
Так, от начала времен,
G
Солдату дана благодать,
F
С Богом надежнее жить,
G
С Богом легко умирать.

Припев:
Am G Am
След звезды пылит по дорогам,
Am G Am
На душе покой да тихая грусть.
Am G Am
Испокон веков граничит с Богом
F G ----------Am
Моя Светлая Русь.

(Соло 1) X 2раза

Сколько раздоров да смут
Ведала Родина-мать,
Как нас хотели согнуть,
Как нас пытались ломать.
Сколько шакалов да псов
Скалятся с разных сторон
На золото наших хлебов,
На золото наших икон.

Припев: Am G Am
След звезды пылит по дорогам,
Am G Am
На душе покой да тихая грусть.
Am G Am
Испокон веков граничит с Богом
F G ----------Am
Моя Светлая Русь.

(Соло 2) X 2 раза

Что собирали отцы,
Нас научили беречь -
Вера родной стороны,
Песня, молитва да меч.
Как повелось от корней,
Ратную службу несут,
Всяк на своем рубеже,
Инок, воин и шут.

Припев: Am G Am
След звезды пылит по дорогам,
Am G Am
На душе покой да тихая грусть.
Am G Am
Испокон веков граничит с Богом
F G ----------Am
Моя Светлая Русь. X 7 раз

(Соло 1) X 4 раза

Соло 1:
Am G
E/-------------------------------------------
H/-------------------------------------------
G/---9-7-5-7-5--------7-5-4-5-4-----7-5-4-5-4
D/-7-------------7--5------------5-5---------
A/-------------------------------------------
E/-------------------------------------------

Am F G
----------------------------------
----------------------------------
------5-5—-12-14-12-14-12-14------
---5-7-----------------------14-12
----------------------------------
----------------------------------

Am
------------------------
------------------------
-------12-14--14--------
----14------------------
-12--------------121212-
------------------------

Соло 2:
Am G Am F G Am
E/----------------------------------------------------
H/---------------------------------------------5------
G/----------------------------------------------------
D/-7-9-7-5-------5---5h7-9-10-7-9-7-5-----5-7----5h7h5
A/---------7-5-7---7------------------7-7-------------
E/----------------------------------------------------

Соло во время припева:
E/-------------------------------------------
H/-------------------------------------------
G/------------------------------------------- x3
D/-------------------------------------------
A/-0--7-5—-5-7-0-5-3--5-0-5-7--5-7-0-5-3--5--
E/-------------------------------------------

E/-------------
H/-------------
G/-------------
D/------------- x1
A/-3-5-3-3-3---
E/-------------

Пишите мне ([email protected]) на mail [email protected]




Ваше мнение



Капча