Соло(Играть после каждого припева):
Dm
|--------------------------------------------------| Повторить 2 раза
|--------------------------------------------------|
|--------------------------------------------------|
|----------------------------5-----7--5-----5------|
|----5--7--8--7--5--5--7--8-----8--------8-----8---|
|--------------------------------------------------|
Riff_1
|-----------------------------------------------------------------------|
|-----------------------------------------------------------------------|
|-----------------------------------------------------------------------|
|-------------5---------------------------------------------------------|
|----5--7--8-----8--7--8--7--5--3--7--5---------------------------------|
|-----------------------------------------------------------------------|
Riff_2
|------------3----------------------------------------------------------|
|---3--5--6-----6--5--6--5--3--1--5--3----------------------------------|
|-----------------------------------------------------------------------|
|-----------------------------------------------------------------------|
|-----------------------------------------------------------------------|
|-----------------------------------------------------------------------|
Dm C B C Dm
Кто-то бьется в поле, кто-то в грязь лицом.
Случай правит пулей, ворон - мертвецом.
Место лютой сечи поросло травой,
Больно жгучи речи, да бой не за горой.
Припев:
G F C Dm (Riff_1)
Кто смел снять с нас чувство вины?
G F C Dm (Riff_2)
Кто примет огонь на себя?




Ваше мнение



Капча