Вступление:
E|-0-0-1-0-4-5-7-7--8----0-2-3-5-7-----------0-2-3-3--5--3--2-2-2-0
H|----------------------3-3----------0-0-1-0-------------------0-0-
G|---------------------2-------------------------------------------
D|-----------------------------------------------------------------
A|-----------------------------------------------------------------
E|-----------------------------------------------------------------

Em
Твои глаза, как океаны,
Am
В них удивленно я гляжу,
Cdim
И вижу берег долгожданный,
H7 Em
Его приметы нахожу.
E7 Am
Не там ли в бухте Провиденья
D7 G
Волна подарит мне агат? -
C Am
На нем твое изображенье:
H7 Em
Вулкан и горный водопад.

(снова играем вступление и куплет по тем же аккордам)

Твои наряды - дар туманов-
Мир украшали с давних пор:
Модель "Величье океанов",
Модель "Великолепье гор".
Горячий ключ - твое дыхание,
Ладонь - холодный сердолик,
Ее сожму я на прощанье -
Мне на далекий материк.

басовые струны: Am7
D|---------------------0---2--2
A|------------0--2--3----------
E|-0---2----3------------------
Там ночь падет у горных башен,
D7 G
Там, на базальтовом плато,
Am
Уже погожий день погашен,
H7 C7 H7
И не вернет его ничто.

E|-2-3-0------|x2 |-2-3-0------|x2 |-3-0-------0--|x2 |----------0-2-
H|------0-----| |------1-----| |----3-1-0-1--1| |-1-1-1-1-0---0
G|-------0----| |-------2---2| |--------------| |--------------
D|-----------2| |----------2-| |--------------| |--------------
A|----------2-| |--------0---| |--------------| |--------------
E|---------0--| |------------| |--------------| |--------------

(повтор 1го)
Твои глаза, как океаны,
В них удивленно я гляжу,
Вижу берег долгожданный,
Его приметы нахожу.
Не там ли в бухте Провиденья
Волна подарит мне агат? -
На нем твое изображение,
Вулкан и горный водопад.

играем вступление плюс:
E|-------------|-0---
H|-5-0--0------|-0---
G|-----0----0-0|-0---
D|--------2--2-|-----
A|-------------|-7---
E|-------------|-0---




Ваше мнение



Капча