Corrected by: Вадим [email protected]
E|--------------------------------------------------------
B|--------------------------------------------------------
G|--------------------------------------------------------
D|--------------------------------------------------------
A|-----------------------------2-----3-0-3-5-7---5-7-5----
E|-5-0-3-5-0-5-4-3-0-2-3-0-2-3---2-5-----------7-------8-7
Riff 1:
Am G C7 E Am
E|--0--------3-1-0------------------------
B|----1-0------------3-1-3-0---0-1-0------
G|-2--------0------------------------2----
D|---------------------------------------2
A|----------------------------------------
E|----------------------------------------
G C7 E
E|-0---------3-1-0---------0----4------
B|---1-0-------------3-1-3-------------
G|---------0---------------------------
D|-------------------------------------
A|-------------------------------------
E|-------------------------------------
Riff 2:
Am G C
E|-------------------------------------------
B|-------------------------------------------
G|-------------------------------------------
D|-----------------------------------0-----0-
A|-2---0-2------2-1-0-----0--------0---0-2---
E|---2--------2-------2-4------2-4-----------
E
E|----------------------------------
B|----------------------------------
G|----------------------------------
D|-----0-2-4---2-4----2-0-----------
A|---4-------4------------4---------
E|----------------------------------
Am G C E Am
Ляг отдохни и послушай, что я скажу
G C E Am
Я терпел, но сегодня я ухожу
G C E Am
Я сказал успокойся и рот закрой
G C E Am
Вот и все, до свидания, черт с тобой
Припев
G C
Я на тебе как на войне
E Am
Я на войне как на тебе,
G C
Hо я устал, окончен бой,
E Am
Беру портвейн, иду домой
G C
Окончен бой, зачах огонь
E Am
И не осталось ничего,
G C E
А мы живем, а нам с тобою повезло
Am
Назло
Боль, эта боль, как ее ты не назови
Это страх, там где страх места нет любви,
Я сказал успокойся и рот закрой
Вот и все, до свидания, черт с тобой
Припев.




Ваше мнение



Капча