Intro:
Play 3 Times
Let ring
E||-----2-3-----2-3-|-----2-3-----2-3-|-----2-3-----2-3-|-----2-3-----2-3-||
B||---3-------3-----|---3-------3-----|---4-------4-----|---4-------4-----||
G||-0---------------|-0---------------|-0---------------|-0---------------||
D||-----------------|-----------------|-----------------|-----------------||
A||-----------------|-----------------|-----------------|-----------------||
E||-----------------|-----------------|-----------------|-----------------||
End of intro, play once
Let ring
E||-----2-3-----2-3-|-----2-3-----2-3-|-----2-3-----2-3-|-7-7-5-5-3-3-1---||
B||---3-------3-----|---3-------3-----|---4-------4-----|-8-8-7-7-5-5-3---||
G||-0---------------|-0---------------|-0---------------|-----------------||
D||-----------------|-----------------|-----------------|-----------------||
A||-----------------|-----------------|-----------------|-----------------||
E||-----------------|-----------------|-----------------|-----------------||
Verse:
Gm Eb D Gm
Chorus:
Gm Gm Cm D
Fill In's




Ваше мнение



Капча