Intro: D - четыре такта.
D G D A(V)
Если катится - вниз, поднимается - вверх,
Em A D*
Если не по пути - придется платить.
D G D A(V)
Если гаснет, то дым, если рана, то кровь.
Em A D
И никто не сможет похвастаться чем-то иным.
Если вечер - вино, то утро - окно
И легко объяснить кино, но только не сны.
Когда живого тошнит, мертвый молчит
И нет причины грустить, кроме любви.
Проигрыш_1.
Кто не знает, тот лжет, если глуп - не поймет,
Есть такие, что не могут прямо смотреть в глаза.
У бумаги свой цвет, у вопроса - ответ,
Но никто не желает раскрашивать и отвечать.
Проигрыш_1 + Проигрыш_2.
Проигрыш_1:
D G D D
F#--------------
C#--------------
A --------------
E |--5---4---2---0---2---0--
H --------------
F#--------------
Проигрыш_2:
боем :)
G G D D G G (D G) G G D D D D
F#----------------------------------------------------
C#----------------------------------------------------
A |--4-4-4-4-2-2---0---7---0-4-2---2-0---2-7---7-7-7-7-6-2-0---7--
E -------4-----------------4---------------------4----
H ----------------------------------------------------
F#----------------------------------------------------

D - F#|-------2-----2----
C#|-----3---3-----3--
A |---2-------2------
E |-0----------------
H -------
F#-------
G - F#|-------3-----3----
C#|-----3---3-----3--
A |---0-------0------
E |-0----------------
H -------
F#-------
A(V) - F#|-------5-----5----
C#|-----5---5-----5--
A |---6-------6------
E -------
H |-7----------------
F#-------
Em - F#|-------0-----0----
C#|-----0---0-----0--
A |---0-------0------
E -------
H |-2----------------
F#-------
A - F#|-------0-----0----
C#|-----2---2-----2--
A |---2-------2------
E |-2----------------
H -------
F#-------
D* - F#|-------3-----2---------2^3^2-------
C#|-----3---3-----3-----3-------3-----
A |---2-------2-------2-----------2---
E |-0---------------0-----------------
H ------------------------
F#------------------------




Ваше мнение



Капча