From: [email protected] (Stephan Mueller)
Subject: TAB: Who made who by AC_DC
Date: 17 Oct 1997 00:00:00 +0100
Who made who (Young/Young/Johnson) by AC/DC "Who made Who" 1986
------------ Tab by S.Mueller
D5 (x577xx) B5 (x244xx) A5 (x02200) D5 Dsus4 (xxx121010)
...the Databank
E ----------------------------------------------------------
B ----------------------------------------------------------
G -14-------------------------------------------------------
D ----\-0-4-5-0-7-0-5-0-4-0-5-0-7-0-5-0-4-0-5-0-7-0-5-0-4-0-
A ----------------------------------------------------------
E ----------------------------------------------------------
E ----------------------------------------------------------
B ----------------------------------------------------------
G ----------------------------------------------------------
D 5-0-7-0-5-0-4-0-5-0-7-0-5-0-4-0-5-0-7-0-5-0-4-0-5-0-7-0-5-
A ----------------------------------------------------------
E ----------------------------------------------------------
...year. B5
T T T T T T T T
E ----------------------------------------------------------
B ----------------------------------------------------------
G ----------------------------------------------------------
D 0-4-0-5-0-7-0-5-0-----------------------------------------
A -------------------6-2-7-2-9-2-7-2-6-2-7-2-9-2-7-2-6-2-7-2




Ваше мнение



Капча