Date: 17 Oct 1997 00:00:00 +0100
From: Stephan Mueller
To: [email protected]
Subject: TAB: The Jack by AC_DC

The Jack by AC/DC (scott/young/young) TNT' (Australia 1975) Tab by S.Mueller
--------

B=bend r=release ~~~=vibrato (finger) tr=trill

Intro:
B A B A B A E
E|----------|----------|----------|----------|----------|----------|----------|
B|----------|----------|----------|----------|----------|----------|----------|
G|----------|----------|----------|----------|----------|----------|----------|
D|-4-4-6-7--|-2-2-4-5--|-4-4-6-7--|-2-2-4-5--|-4-4-6-7--|-2-2-4-5--|----------|
A|-2-2-2-2--|-0-0-0-0--|-2-2-2-2--|-0-0-0-0--|-2-2-2-2--|-0-0-0-0--|-2-2-4-5--|
E|----------|----------|----------|----------|----------|----------|-0-0-0-0--|

E|----------|-----------------|
B|----------|-----------------|
G|----------|-----------------|
D|-2-3-4----|-4-4-4-4-4-4-4/--|
A|-0-1-2----|-2-2-2-2-2-2-2/--|
E|----------|-----------------|

Figures:
E-Pattern A-Pattern
E|-----------| e|-----------|
B|-----------| b|--------3--| Verse: 4 x E-Pattern
G|-----------| g|--------4--| 4 x A-Pattern




Ваше мнение



Капча