Date: 17 Oct 1997 00:00:00 +0100
From: Stephan Mueller
To: [email protected]
Subject: TAB: Moneytalks by AC_DC

Moneytalks by AC/DC (Young/Young) 'The Razors Edge' (1990) Tab by S.Mueller
----------

Fig 1a Guitar 1 (G Gsus2 G Gsus2 Csus2)

|e ------------------|--------------|---------------|---------------|
|b --3---3--3-3--1---|--1-1-1--1--1-|-3-3--3-3--1---|-1-1----1----1-|
|g --4---2--4-2--0---|--4-2-0--2--0-|-4-2--4-2--0---|-4-2--0-0-2--0-|
|D --0---0--0-0--0---|--------------|-0-0--0-0--0---|---------------|
|A --------------3---|--------------|-----------3---|---------------|
|E --3---3--3-3------|--------------|-3-3--3-3------|---------------|

Fig 1b GTR.2 |
|e --7---5--7-5--8---|--7-5----5----|-7-5--7-5--8---|-7-x----x-x--x-|
|b --8---8--8-8--8------8-8-8--8--8---8-8--8-8--8---|-8-10\8-8-10-8-|
|g --7---7--7-7--9------5---7-----7---7-7--7-7--9---|-7-7----7-7--7-|
|D -------------------------------------------------|---------------|
|A -------------------------------------------------|---------------|
|E -------------------------------------------------|---------------|

Fig. 2a (4x) Gtr.1 Fig. 2b (4x) with Gtr.2
E ----------------| e ----------------|
B -3--3-----------| b ----------------|
G -0--0-----------| g ----------------| (2 times)
D -0--0-----------| D ----------------|
A ---------1-2----| A -5--5----1-2----|
E -3--3--3-----3--| E -3--3--3-----3--|
Fig.3 D5
...claim is on you the sights are on me So what do you
E ----------------------------------------------------------
B -3-----------3------------3------------3---------3----3---
G -2-----------2------------2------------2---------2----2---
D -0-----------0-0-3-4-0----0------------0-0-3-4-0-0----0---
A ----------------------------------------------------------
E ----------------------------------------------------------
C5 Fig.4 (4 Times)
Do, that`s guaranteed? Hey little girl, You want it all...
E ----------------------------------------------------------
B -3-------------3------3-----------------------------------
G -2-------------2------2-----------------5------5----------
D -0-0-3-4-0-----0------0---0-3-4-0-------5------5----1-2---
A ----------------------------------------3------3--3-----3-
E ----------------------------------------------------------




Ваше мнение



Капча