From: [email protected] (Stephan Mueller)
Subject: TAB: Lets get it up by AC_DC
Date: 17 Oct 1997 00:00:00 +0100

Let's get it up (Young/Young/Johnson) by AC/DC Tabed by S.Mueller
--------------- 'For Those About To Rock (We Salute You)' (1981)

(E) A D/A (E) A D/A A
E|-----------------------|--------------------------|
B|--------------2--3--3--|--------------2--3--3--2--| Pattern 1
G|--------------2--2--2--|--------------2--2--2--2--|
D|-----------2--2--4--4--|-----------2--2--4--4--2--|
A|---------2----0--0--0--|---------2----0--0--0--0--|
E|---0-2/4---------------|---0-2/4------------------|
A5 B5 E A5 B5 B5
E|--------0---|--------------| Pattern 2 (Verse)
B|--------0---|--------------|
G|-2--4---1---|----2--4---4--| X 2
D|-2--4---2---|----2--4---4--|
A|-0--2---2---|----0--2---2--|
E|--------0---|--------------|
(I'm gonna get it up.)...
B E B E B A
E|-------0--0-----------0-------------------0--| Pattern 3
B|-4--4--0--0------4----0----4------------0-2--|
G|-4--4--1--1------4----1----4--------------2--|
D|-4--4--2--2------4----2----4--2------2----2--|
A|-2--2--2--2------2----2----2--0------0----0--|
E|-------0--0-----------0----------------------|

With Pattern 1
B ~~~~~ b ~~~~~
E|----------------------------------------------------------------------------|
B|----------------------------------------------------------------------------|
G|-7-9--------7--7--7--7\6--4----7-9---------7--7--7--7-----------------------|
D|-----------------------------7---------------------------7------------------|
A|----------------------------------------------------------------------------|
E|----------------------------------------------------------------------------|
Gtr.1
B b ~ ~~ b b b
E|---------------|--7--------------|-----------------|---------7----------------
B|-10-12--10-12--|----10-7---7-----|------10-------10\-10-12-10--10-7---7-------
G|---------------|---------9--7----|--9-11--9-11-9-11\----------------10-10-9-7-
D|---------------|--------------9--|-----------------|-------------------------9
A|---------------|-----------------|-----------------|--------------------------
E|---------------|-----------------|-----------------|--------------------------
Pattern 4 (GTR. 2 over Solo) |
| A B E A B A B E D/A A |
E|---------------|-----------------|-----------------|----2--2-2-2------------|
B|---------------|-----------4-----|-----------------|----3--3-3-3----2-------|
G|----2--4-4-1---|-2---4--4--4-----|--2--4-4-1-----1-|----2--2-2-2----2-------|
D|----2--4-4-2---|-2---4--4--4-----|--2--4-4-2-----2-|-2--0--0-0-0----2-------|
A|----0--2-2-2---|-0---2--2--2-----|--0--2-2-2-----2-|-2--0--0-0-0----0-------|
E|-----------0---|-----------------|---------0-----0-|-0----------------------|
\.........................................................................../
Gtr.1 (cont.)
~~~~~ b hb b ~~~ b r b
E|----------------------------------------------------------------------------|
B|------------------------10--10---10--\---10--12--12---12--14-16--14-12-15-17|
G|-9-7---------7----9-11-(11)--9-9-11--\---11--13--13---13--------------------|
D|-----9-9--------------------------------------------------------------------|
A|----------------------------------------------------------------------------|
E|----------------------------------------------------------------------------|
B ~~~~~~ b b r ~~~~~~ b
E|---------------------------------------------------------------------17-19--|
B|15-17-------15----16------------17-19----17--15---17-15---------------------|
G|----------------------16-16--------------------16-------16-------\----------|
D|----------------------------------------------------------------------------|
A|----------------------------------------------------------------------------|
E|----------------------------------------------------------------------------|
B ~~ b b b b b ~~~
E|-17---14--------------------22-24--22----19---------------------------------|
B|---------17-18--17---15---------------------19--22-24--22-24--22-24--22-24--|
G|------------------------16--------------------------------------------------|
D|----------------------------------------------------------------------------|
A|----------------------------------------------------------------------------|
E|----------------------------------------------------------------------------|
B r b b b b b
E|---------------------------------------------------------------19-----22-24-|
B|22---22-24---22-19-----------------------------22-----------------19--------|
G|-------------------21-23-21--19--20------21-23----21-23--21-23--------------|
D|----------------------------------------------------------------------------|
A|----------------------------------------------------------------------------|
E|----------------------------------------------------------------------------|
B ~~~~
E|22-19-------------------|
B|------19--22-24-----\---|
G|------------------------|
D|------------------------|
A|------------------------|
E|------------------------|
Outro:
A (E) A D/A
E|----------------------------------------------------------------------------|
B|-2--2--2--2--2---2--2--2--2--2--2--2--2--2--2--2-------------2--2--2--------|
G|-2--2--2--2--2---2--2--2--2--2--2--2--2--2--2--2-------------2--3--3--------|




Ваше мнение



Капча