From: [email protected] (Stephan Mueller)
Subject: TAB: Bonny by AC_DC
Date: 17 Oct 1997 00:00:00 +0100

Bonny (Traditional) as recorded by AC/DC off the Album
----- "LIVE" Special Collector`s edition Tab by S.Mueller

Explanation:
H=hammeron p=pulloff ~=handvibrato
X=failed s=slide b/neck~= bend neck means...USE YOUR WHAMMY BAR! ;)
(Angus uses often a Gibson SG Custom with Bigsby Vibrato)

~~~ ~~b/neck~~~ h s~~~~
E|-3------------------|---------------------------------------|---------------|
B|-3------------------|---------------------------------------|---------------|
G|-4------------------|---------------------------------------|---------------|
D|-5------------------|-5---5--5--7--9--9-9--7--5--7--5-------|--------5--5--5|
A|-5------------------|----------------------------------7--5-|-5--7----------|
E|-3------------------|---------------------------------------|---------------|
S ~~~~ ~~~~~ ~~ x
E|-------------------------|---------------------------------------|----------|
B|-------------------------|---------------------------------------|----------|
G|-----------7--9----7-----|-7--9--9--7--------7-------------------|----------|
D|--7--9--9----------------|-------------9--9-----10-9-7-5---------|------5--5|
A|-------------------------|--------------------------------10--7--|5--7------|
E|-------------------------|---------------------------------------|----------|
~~~~ h p
E|-------------------------3-----------|
B|-------------------------3-----------|
G|-----7--9--7-------------4-----------|
D|7s9-----------9--9-7-9---5-----------|
A|-------------------------5-----------|
E|-------------------------3-----------|




Ваше мнение



Капча