Version 1.0
Transcription By: Peter Kubik(of Abigor)
ABIGOR - Mirages For The Eyes Of The Blind (from Opus IV)
|---------|------|---0--|RIFF I
|---------|------|---0--|
|---------|------|---0--|
|---------|9--10-|------|
|-P-------|7--8--|3-----|
|0-1/8-7--|7--8--|1-----|
|0--------|0--------|---------|---------|PART I
|0--------|0--------|---------|---------|
|0--------|0--------|---------|---------|
|2--------|2--------|---------|---------|
|2--------|2--------|---------|---------|
|0--------|0--------|---------|---------|
|0--------|0--------|----------------|----------------|0--------|0--------|
|9--------|9--------|9-10------------|9-10------------|9--------|9--------|
|7--------|7--------|-----11-7-------|-----11-7-------|7--------|7--------|
|0--------|0--------|----------7-6-7-|----------7-6-7-|0--------|0--------|
|---------|---------|----------------|----------------|---------|---------|
|---------|---------|----------------|----------------|---------|---------|
|----------------|----------------|RIFF II
|9-10------------|9-10------------|
|-----11-7-------|-----10-7-------|
|----------7-6-7-|----------7-6-7-|
|----------------|----------------|
|----------------|----------------|
|--------------|--------------|RIFF III
|--------------|--------------|
|--------------|--------------|
|--2-4-5-4-2-4-|--------------|
|-2------------|-2-7-9-10-9-7-|
|0-------------|0-------------|
|-------------------|---------------|RIFF IV
|-------------------|---------------|
|-------------------|---------------|
|--9-11-12-11-9-7-9-|--2-7-9-10-9-7-|
|9------------------|0--------------|
|-------------------|---------------|
|-----------|-----------|RIFF V
|-----------|-----------|
|-----------|-----------|
|----7-9----|----3-5----|
|0-------7--|3-------2--|
|-----------|-----------|
|---------------------|PART II
|---------------------|
|-H-P-----------------|
|2-3-2--H-P----5-4----|
|------0-3-0-2--------|
|---------------------|
|--------------------|RIFF VI
|--------------------|
|--------------------|
|--9---10---8-----7--|
|7---7----6---6-5----|
|--------------------|
|------------------|-------------------|------------------|
|----------H-P-----|----------H-P------|------------------|
|--7-8-10-7-8-7----|--7-8-10-7-8-7-----|----------H-P-----|
|0--------------8--|0--------------10--|--7-8-10-7-8-7----|
|------------------|-------------------|0--------------8--|
|------------------|-------------------|------------------|
|------------------|RIFF VII
|------------------|
|----------P-H-----|
|--7-8-10-7-8-7----|
|0--------------8--|
|------------------|
|--------------------|RIFF VIII
|--------------------|
|--------------------|
|--0----0----0----0--|
|-2-2--2-2--0-0--0-0-|
|0----3----2----1----|
|-----|-----|------|--------|RIFF IX
|-----|-----|------|----10--|
|-----|-----|------|6---8---|
|3----|-----|7-----|4---8---|
|1----|-----|5-----|4-------|
|1----|-----|5-----|--------|
|---5--7---7--4--------3-2------|RIFF X
|--5----5------4------3---2--5--|
|-5------5------4----3-----2----|
|7---------------6--5-----------|
|-------------------------------|
|-------------------------------|

RIFF I 8 times
PART I 1 time
RIFF II 4 times
RIFF III 2 times
RIFF IV 2 times
RIFF III 2 times
RIFF IV 2 times
RIFF V 4 times
PART II 1 time
RIFF VI 4 times
RIFF VII 2 times
RIFF VIII 4 times
RIFF IX 4 times
RIFF X 6 times




Ваше мнение



Капча