ABIGOR - DORNEN
>From The Album: Nachthymnen (From The Twilight Kingdom)
Transcribed By: Fredrik Klingvall
_______________________________________________________
Intro ?
Riff 1 (x2)
|------------------------------------------------|
|------------------------------------------------|
|------------------------------------------------|
|-------7-----------5-----------7----------9-----|
|-5-----------3-----------5----------7-----------|
|------------------------------------------------|
Riff 2 (x2)
|-------------------------------------|
|-------------------------------------|
|-------------------------------------|
|------8--7--------------8--7---------|
|-5----------8------5----------3------|
|-------------------------------------|
Riff 3 (x2)
|--------------------------------------|
|--------------------------------------|
|--------------------------------------|
|------7--8--7---------7--8--10--8-----|
|-5---------------5--------------------|
|--------------------------------------|
Repeat Riff 1 (x2)
Repeat Riff 2 (x2)
Repeat Riff 3 (x2)
Riff 4 (x4)
|-----------------|
|-----------------|
|-----------------|
|-----7---5-------|
|-5-----8-----3---|
|-----------------|
Repat Riff 1 (x2)
Riff 5 (x4)
|-------------------|
|-------------------|
|-------------------|
|-----6-5-----5-4---|
|-3-------2---------|
|-------------------|
Repeat Riff 1 (x2)
Repeat Riff 2 (x2)
Repeat Riff 3 (x2)
Repeat Riff 1 (x2)
Repeat Riff 5 (x4)
Riff 6 ?




Ваше мнение



Капча