here's the chords to Pencil Rain from Lincoln.
A A A A A
the possible dream finally of seem the moment that some call eternal
E/B E A2 G D/F# F
that some call insane now helmets on each head awaiting the first lead
A E
the pagent is called the pencil rain.
E--0-0-5-0-5-0--0-0-5-0-5--0-0-5-0-5-0-5-0-5-0-------------0-|
B----------------------------------------------2-2-3-2-3-5\0-|
G----------------------------------------------------------1-|
D----------------------------------------------------------2-|
A----------------------------------------------------------2-|
E----------------------------------------------------------0-|
E-----------------------------------0-0-5-0-5-0---------|
B--2-2-3-2-3-5-2-2--2-2-3-2-3-5-2-2-------------2-2-----|
G---------------------------------------------------2-2-|
D-------------------------------------------------------|
A-------------------------------------------------------|
E-------------------------------------------------------|

das it.
IF THIS IS POSTED ANYWHERE ELSE, PLEASE GIVE ME CREDIT
thanks
[email protected]




Другие песни исполнителя

I Concentrate On You
Ive Got a Match (табы)


Ваше мнение



Капча