Received: from yarrina.connect.com.au (yarrina.connect.com.au [192.189.54.17]) by post-office.nevada.edu (8.6.4/8.6.4) with SMTP id WAA19820 for ; Sat, 19 Mar 1994 22:46:25 -0800
Received: from werple.apana.org.au by yarrina.connect.com.au with SMTP id AA03576
(5.67b8/IDA-1.5 for ); Sun, 20 Mar 1994 16:46:13 +1000
Received: from zikzak.apana.org.au ([email protected] [192.188.107.73]) by werple.apana.org.au (8.6.8/8.6.6) with ESMTP id QAA05317 for ; Sun, 20 Mar 1994 16:45:52 +1000
Received: from localhost ([email protected]) by zikzak.apana.org.au (8.6.4/8.6) id QAA01657; Sun, 20 Mar 1994 16:34:56 +1000
From: Gary Chapman
Message-Id:
Subject: TAB: ABBA - Mama Mia
To: [email protected]
Date: Sun, 20 Mar 1994 16:34:33 +1000 (EST)
X-Mailer: ELM [version 2.4 PL23]
Mime-Version: 1.0
Content-Type: text/plain; charset=US-ASCII
Content-Transfer-Encoding: 7bit
Content-Length: 3658

Mama-mia - transcribed by Gary Chapman
========

Intro:

E ----5---5---5---5---6---6---6---6---5---5---5---5---6---6---6---6
B -----------------------------------------------------------------
G --7---7---7---7---7---7---7---7---7---7---7---7---7---7---7---7--
D -----------------------------------------------------------------
A -----------------------------------------------------------------
E -----------------------------------------------------------------

Play above twice. On second pass, see below.

E ------------------------------------------------------------------
B --------7-------------7-5-7-575---------7-------------7-5-7-575---
G ----4-7-------------------------7---4-7-------------------------7-
D --7-------------------------------7-------------------------------
A ------------------------------------------------------------------
E ------------------------------------------------------------------

--- incidental stuff ---

Lick #1: Lick #2

E ----------- -----------
B --7-5^5/10- --7-5^7/11-
G ----------- -----------




Ваше мнение



Капча