Received: from yarrina.connect.com.au (yarrina.connect.com.au [192.189.54.17]) by post-office.nevada.edu (8.6.4/8.6.4) with SMTP id WAA19826 for ; Sat, 19 Mar 1994 22:46:28 -0800
Received: from werple.apana.org.au by yarrina.connect.com.au with SMTP id AA03575
(5.67b8/IDA-1.5 for ); Sun, 20 Mar 1994 16:46:11 +1000
Received: from zikzak.apana.org.au ([email protected] [192.188.107.73]) by werple.apana.org.au (8.6.8/8.6.6) with ESMTP id QAA05319 for ; Sun, 20 Mar 1994 16:45:54 +1000
Received: from localhost ([email protected]) by zikzak.apana.org.au (8.6.4/8.6) id QAA01647; Sun, 20 Mar 1994 16:34:57 +1000
From: Gary Chapman
Message-Id:
Subject: TAB: ABBA - Chiquitita
To: [email protected]
Date: Sun, 20 Mar 1994 16:34:24 +1000 (EST)
X-Mailer: ELM [version 2.4 PL23]
Mime-Version: 1.0
Content-Type: text/plain; charset=US-ASCII
Content-Transfer-Encoding: 7bit
Content-Length: 3689
Chiquitita - transcribed by Gary Chapman
==========
~ = vibrato
^ = hammer/pull
/ = slide
Some of the chords used:
C#min C#add9 Esus4 E7 Asus4
E --4--------4-------0-----0------0-----------------------------------------
B --5--------4-------0-----3------3-----------------------------------------
G --6--------6-------2-----1------2-----------------------------------------
D --6--------6-------2-----0------2-----------------------------------------
A --4--------4-------2-----2------0-----------------------------------------
E -------------------0-----0------------------------------------------------
Intro: nylon string acoustic
E ----------------------------------------------------------------------
B ---2---3---5---7---9---10--10/12~--10^12^10---9---7---9---10---7---5--
G --2---4---6---7---9---11---11/13~--11--------9---7---9---11---7---4---
D -----------------------------------------------------------------6----
A ----------------------------------------------------------------------
E ----------------------------------------------------------------------
(piano plays A and Asus4 a few times)
Verse 1:
Asus4 A Asus4 A
Chiquitita, tell me what's wrong.
E
You're enchained by your own sorrow.
E D E E7 A Asus4 A
I-i-i-in your eyes there is no hope for tomorrow.
Asus4 A Asus4 A
How I hate to see you like this.
Asus4 C#min C#add9 C#min C#add9
There is no way you can deny it.
E D E E7 A Asus4 A
I-I-I-I can see that you're oh so sad, so quiet.




Ваше мнение



Капча