Artist: Abandoned Pools
Song: The Remedy

This tablature may not be exact, but these power chords sound fine with the song.
The verse is only bass guitar, but CHORUS 2 goes well with the bassline.

CHORUS 1
e|-------------------------------------------|
B|-------------------------------------------|
G|--9--------------7----9--------------------|
D|--9----7----5----7----9----7----5----9-----|
A|--7----7----5----5----7----7----5----9-----|
E|-------5----3--------------5----3----7-----|
you could be the remedy and I...

CHORUS 2
e|-----------------------|
B|-----------------------|
G|------------5----7-----|
D|--2----2----5----7-----|
A|--2----2----3----5-----|
E|--0----0---------------|
say this world is not so shallow...





Ваше мнение



Капча