#-----------------------------------------------------------------------------#
#-- File created with Instab - http://www.pconline.com/~smcarey/instab.html --#
#-----------------------------------------------------------------------------#

Author/Artist: Abandoned Pools
Title: Monster
Album: Humanistic
Transcribed by: Adam Dyer
Email: [email protected]

Great song, awesome band...Don't be afraid to check them out.

-|--------------------|-1----------------1----------------3----------------3-|
-|-2---------2--------|-3----------------3----------------3----------------3-|
-|---4---2-----4---2--|-4----------------4----------------4----------------4-|
-|---------5---------5|-4----------------4----------------5----------------5-|
-|-----5---------5----|-2----------------2----------------5----------------5-|
-|--------------------|-x----------------x----------------3----------------3-|
//Intro/ //Verse/ (Tremolo effect is used on some of

-------------------------|-3----------------1---------------|---------|-------|
-------------------------|-3--3-2-3--3-2-3--3--3-2-3--3-2-3-|---------|-------|
-9-----9-----9-----9-----|-4----------------4---------------|---------|-------|
-9-------9-----9-----9---|-5----------------4---------------|-2-2-2-2-|-------|
-7---------7-----7-------|-5----------------2---------------|-2-2-2-2-|-------|
-0-----------------------|-3----------------x---------------|-0-0-0-0-|-------|
the chords..Listen to the song for it) (palm muted)

-|----------------------------------------------|-----------------------------|
-|----------------------------------------------|-----------------------------|
-|-4-4-4-4-4-4-4-4-4-4-4------------------------|---11---9/11--11---119------|
-|-4-4-4-4-4-4-4-4-4-4-4--5-5-5-5-5-5-5-5-5-5-5-|---x----x/x---x-----x-x------|
-|-2-2-2-2-2-2-2-2-2-2-2--5-5-5-5-5-5-5-5-5-5-5-|---9----7/9---9-----9/7------|
-|------------------------3-3-3-3-3-3-3-3-3-3-3-|-0----0-----0----0-----------|
//Chorus/ //End of chorus/

------------|-1----------------3----------------|-------------------|--------|
------------|-3--3-2-3--3-2-3--3--3-2-3-5-3-2-3-|------8------------|--------|
--11---9/11-|-4----------------0----------------|----9---9-------9--|--------|
---x---x-x--|-4----------------0----------------|--9-------9---9---9|2-2-2-2-|
---9---7/9--|-2----------------2----------------|7-----------7------|2-2-2-2-|
-0---0------|-x----------------3----------------|-------------------|0-0-0-0-|
//Middle part of second verse/ //End of Verse 2/ PM.....

-|-0-----3-------------------0-----3-----1-------|---------|------------------|
-|-2-----3-------------------2-----3-----2-------|---------|------------------|
-|-2-----0-------------------2-----0-----3-------|---------|------------------|
-|-2-----0--4----4-----2-----2-----0-----3-----2-|-2-2-2-2-|------------------|
-|-0-----2----5--4-----2-----0-----2-----1-----2-|-2-2-2-2-|------------------|
-|-x-----3-------2-----0-----x-----3-----x-----0-|-0-0-0-0-|------------------|
//Bridge/ (palm muted)

-|----------------------------------------|---------|-------------------------|
-|----------------------------------------|---------|-------------------------|
-|-----6-5-4-3b----------18-17-16-15b-----|---------|-------------------------|
-|---4----------4b----16--------------16b-|-2-2-2-2-|-------------------------|
-|-5---------------17---------------------|-2-2-2-2-|-------------------------|
-|----------------------------------------|-0-0-0-0-|-------------------------|
//Solo/ (Chords backing the lead are the two power chords in the chorus)

-|--------|-------------------------------------------------------------------|
-|--------|-------------------------------------------------------------------|
-|--------|-------------------------------------------------------------------|
-|------5-|-------------------------------------------------------------------|
-|-4-0--x-|-------------------------------------------------------------------|
-|------3-|-------------------------------------------------------------------|
//Ending/ THIS IS MY FIRST TAB...LET ME KNOW HOW I DID ([email protected])





Ваше мнение



Капча