--------------------------------------------------------------------
Miss You - Aaliyah
--------------------------------------------------------------------
Tabbed by: MiStAhMoOgLe
Tuning: Normal
Moderately slow hip-hop (with a half-time feel)
Metronome = 112
Key: Bb Major
Stanza: 4/4
e|-----------------------------1----|---------------1--3--1--------|
B|----3----------3--1---------------|----1-------------------------|
G|---------0-------------2----------|---------2--------2-----------|
D|-------1-------------3------------|-------3----------0-----------|
A|----------------------------------|------------------------------|
E|----------------------------------|------------------------------|
e|-----------------------------1----|------------------------------|
B|----3----------3--1---------------|----3--1-----1--1-------------|
G|---------0-------------2----------|-------------------3-----3----|
D|-------1-------------3------------|----------------0-------------|
A|----------------------------------|------------------------------|
E|----------------------------------|------------------------------|
====================================================================




Ваше мнение



Капча