*********************************
****When I'm Missing You - A1****
*********************************
Tabbed by: someonefreak
Email: -
Tuning:Standard
Chords Used:
Dm (000231)
D (000232)
Bm (224432)
C (032010)
Dsus (000233)
G (320003)
Am (002210)
tap = ^
Intro:
^ ^ ^ (G) ^ ^ (D)
E|-------3--------3---------3----3--------------3---------3----2----
B|-------0--------0---------0----0--------------0---------0----3----
G|-------0--------0---------0----0--------------0---------0----2----
D|-------0--------0-----0---0----0--------------0---------0---------
A|------------3------------------2-----------------2--3-------------
E|---3---------------------------3---3---2---0----------------------

Verse 1/Verse 2:
^ ^ ^ (G) ^ ^ (D)(Dsus)(D)
E|-------3--------3---------3----3--------------3---------3----2---3---2--
B|-------0--------0---------0----0--------------0---------0----3---3---3--
G|-------0--------0---------0----0--------------0---------0----2---2---2--
D|-------0--------0-----0---0----0--------------0---------0---------------
A|-----------3-2-----------------2-----------------2--3-------------------
E|---3---------------------------3---3---2---0----------------------------
Sunday morningЎK / Now time ainЎ¦t healingЎK
^ ^ ^ (G) ^ ^ (D)(Dsus?)(D)
E|-------3--------3---------3----3--------------3---------3----2---0---2--
B|-------0--------0---------0----0--------------0---------0----3---3---3--
G|-------0--------0---------0----0--------------0---------0----2---2---2--
D|-------0--------0-----0---0----0--------------0---------0---------------
A|-----------3-2-----------------2-----------------2--3-------------------
E|---3---------------------------3---3---2---0----------------------------
Though IЎ¦m leavingЎK / IЎ¦ve been callingЎK

Pre-chorus:
Dm C G
It's a lonely ride on the midnight train
Dm C G
I'm counting down the days till I'm home again
Chorus:
G C D G
How can I sing when my words have run dry
G C D G
How can I smile with a tear in my eye
G C D G
Summer's so lost when it's raining in June
Am
That's how it feels
D
When I'm missing you
Bm C D G (change it fast at word)
I never met a girl who was so damn sweet
Am D G
CanЎ¦t wait to see you again, oh...
Bm C D G (change fast again)
I never had a love that was so complete
Am D
And you know that I'll be dreaming till then
- nothing -
Ooh, my baby




Ваше мнение



Капча