----------------------|
G ||-5--5--5--5--5--5--5--5--------------------------------------------|
D ||-3--3--3--3--3--3--3--3-5-5-5-5-5-5-5-7-7-7-7-7-7-7--3-3-3-3-3-3-3-|
A ||-3--3--3--3--3--3--3--3-3-3-3-3-3-3-3-7-7-7-7-7-7-7--3-3-3-3-3-3-3-|
E ||------------------------3-3-3-3-3-3-3-5-5-5-5-5-5-5--1-1-1-1-1-1-1-|
Fill Riff: repeat 2x
E ||-------------------------|
B ||-------------------------|
G ||-------------------------|
D ||-------------------------|
A ||---5-7---5-7-0-5-7---7-5-|
E ||-8-----3-----------1-----|
Verse 2:
The steps that...
E ||-------------------------------------------------------------------|
B ||-------------------------------------------------------------------|
G ||-5--5--5--5--5--5--5--5--------------------------------------------|
D ||-3--3--3--3--3--3--3--3-5-5-5-5-5-5-5-7-7-7-7-7-7-7--3-3-3-3-3-3-3-|
A ||-3--3--3--3--3--3--3--3-3-3-3-3-3-3-3-7-7-7-7-7-7-7--3-3-3-3-3-3-3-|
E ||------------------------3-3-3-3-3-3-3-5-5-5-5-5-5-5--1-1-1-1-1-1-1-|
E ||
B ||
G ||
D ||
A ||
E ||
B ||-------------------------------------------------------------------|
G ||-5--5--5--5--5--5--5--5--------------------------------------------|
D ||-3--3--3--3--3--3--3--3-5-5-5-5-5-5-5-7-7-7-7-7-7-7--3-3-3-3-3-3-3-|
A ||-3--3--3--3--3--3--3--3-3-3-3-3-3-3-3-7-7-7-7-7-7-7--3-3-3-3-3-3-3-|
E ||------------------------3-3-3-3-3-3-3-5-5-5-5-5-5-5--1-1-1-1-1-1-1-|
Fill Riff: repeat 2x
E ||-------------------------|
B ||-------------------------|
G ||-------------------------|
D ||-------------------------|
A ||---5-7---5-7-0-5-7---7-5-|
E ||-8-----3-----------1-----|
Riff A. h h p h
||-----------|--------------------|------------------|--------------------|
||-----------|--------------------|------------------|--------------------|
||--X--------|--------------------|------------------|--------------------|
||-----X-----|--------------------|------------------|--------------------|
||--------X--|--------------5--7--|--7---7--5-----5--|--5--------5--------|
||-----------|--0--0--5--7--------|------------7-----|-----5--7-----5-----|
Backwards rake-|
P p h h p h h
|--------------------|-----------------|------------------|---------------|
|--------------------|-----------------|------------------|---------------|
|--------------------|-----------------|------------------|---------------|
|--------------------|-----------------|------------------|---------------|
|--------------------|-----------5--7--|--7---7--5-----5--|--5-------5----|
|--5--0--3--5--7--0--|--0--5--7--------|------------7-----|----5--7-----5-|
P b1/2
|---------------------||
|---------------------|| (End Riff A.)
|---------------------||
|---------------------||
|---------------------||
|--5--0--5--3------0--||
E------------------------------------
B------------------------------------
G-5555555555555555-------------------
D-5555555555555555-555555555-33333333
A-3333333333333333-555555555-33333333





Ваше мнение



Капча