A
again a nothing bside
everybody in
normal tuning, start clean then stay with chunky dist all thru
ok this is an ace song.
start with this bit clean,
its sposed to be giles on
pia pia piano but yknow :)
|-----------------------------------------------------------------|
|------------7----------7--------------7--------------7--8--------|
|---------7----7-----7----7----------7---7---------7--------------|
|------------------5-----------------------------5----------------|
|-----5---------------------------7-------------------------------|
|-----------------------------------------------------------------|
repeat this through first verse, then major bass
kicks in just keep repeating this, until
we reach the part where the real guitar kicks
in, throw on your major distortion pedal, and
then u play the first part with palm mute, and
hit each one twice. and we finally get to
a chorus dont we?? quite similar to the verse in fact.
HEY WHAT YOU LIVIN FOR!! (note number of reps
not given, just play a pretty
simple prog on the chords)
|------------------------------------------------------------------|
|---------7---------8----------------------------------------------|
|----7----7-----9---7----------------------------------------------|
|----7----5-----9---5----------------------------------------------|
|----5----------7--------------------------------------------------|
|------------------------------------------------------------------|
thats for half the cborus, then it goes to this:
IS ANYBODY IN.....yadayadayada then we reach the
end bit DON'T THINK I CAN..
|----------------------|--------------------------------|
|----------------------|--------------------------------|
|----7-----------------|----0---7--11h12p11-------------|
|----7----7---2---5----|--------------------------------|
|----5----7---2---5----|--------------------------------|
|----5----5---0---3----|--------------------------------|
And then u repeat everything, and we reach, A SOLO!!!!! wooooo!!!
for this solo i reccomend plenty of vibrato, sounds better
|-------------------------------------------------------------------------------------------------|
|--0--7--11h12-0-7-11h12p11--1515151515-----------------------------------------------------------|
|-----------------------------------------------------141414---9h11--11-9-9-9-9h11-11-11-11h12p11-|
|-------------------------------------------------------------------------------------------------|
|-------------------------------------------------------------------------------------------------|
|-------------------------------------------------------------------------------------------------|
AND REPEAT!!!
and by jolly jove thats it. i think.
anyway you can work with that cant ya!! i sure as hell can.
ace song.
any complaints compliments etc, emails at the bottom.
By fretboardmaster aka charlie
[email protected]





Ваше мнение



Капча