Thinking Of You-A Perfect Circle
Mer De Noms
C# F# B E G# C#
Intro:
G5oct E5oct
Riff B: Bass gtr
g-----------------------------------------------------------------
d-----------------------------------------------------------------
a---3h5---------3h5-----------------3h5---------3h5---------------
e-------0-5-5-------0-5-5---5---5-------0-5-5-------0-5-5---1---0-
Riff A:
e-12--------------10------9---------------------------------------
b------11---10----------------------11--10-------10br-------------
g------------------------------11---------------------------------
d-----------------------------------------------------------------
a-----------------------------------------------------------------
e-----------------------------------------------------------------
A5oct G5oct E5oct
Bass:
g-----------------------------------------------------------------
d-----------------------------------------------------------------
a---3h5---------3h5-----------------3h5---------3h5---------------
e-------0-5-5-------0-5-5---5---5-------0-5-5-------0-5-5---5----
gtr.
e-12--------------10------9---------------------------------------
b------11---10----------------------11--10-------10br-------------
g------------------------------11---------------------------------
d-----------------------------------------------------------------
a-----------------------------------------------------------------
e-----------------------------------------------------------------
Verses: Riff A
before chorus:
e----------------------------------------
b----------------------------------------
g------2--2--2--2------5--5--5--5--5-----
d------2--2--2--2------5--5--5--5--5-----
a------0--0--0--0------3--3--3--3--3-----
e-------------------------------------0--
Chorus:
e-----------------------------------------------------------------
b-----------------------------------------------------------------
g----------------2--2--2--2--2--10-10-10-10-10--------------------
d-5--------------2--2--2--2--2--10-10-10-10-10-----5--------------
a-5--------------0--0--0--0--0---8--8--8--8--8-----5--------------
e-3---------------------------------------------0--3--------------
Fig. 1
e-----------------------------------------------------------------
b-----------------------------------------------------------------
g---5/7---------5/7-----------------5/7---------5/7---------------
d---5/7---7-7---5/7-----------------5/7---7-7---5/7---7-7---3---2-
a---3/5---7-7---3/5-----7---7---7---3/5---7-7---3/5---7-7---3---2-
e-------0-5-5-------0-5-5---5---5-------0-5-5-------0-5-5---1---0-
e-----------------------------------------------------------------
b-----------------------------------------------------------------
g---5/7---------5/7-----------------5/7---------5/7---------------
d---5/7---7-7---5/7-----------------5/7---7-7---5/7---------------
a---3/5---7-7---3/5-----7---7---7---3/5---7-7---3/5---7-7---7-----
e-------0-5-5-------0-5-5---5---5-------0-5-5-------0-5-5---5-----
Verse 2: Fig. 1
Interlude:
e-----------------------------------------------------------------
b-----------------------------------------------------------------
g-----------------------------------------------------------------
d-5-----------5-----------5-------5-----------5-----------5-------
a-5-5-5-5-----5-5-5-5-----5-5-----5-5-5-5-----5-5-5-5-----5-------
e-3-3-3-3-----3-3-3-3-----3-3-----3-3-3-3-----3-3-3-3-----3-------
Solo: w/ chorus and flanger and octaver up one oct
e-----------------------------------------------------------------
b-----------------------------------------------------------------
g-5-5-5-5-5-7-4-4-4-4-4-4-9-9-9-4-7-7-7-7-7-4-7-7-7-7-7-4-7-7-7-7-
d-----------------------------------------------------------------
a-----------------------------------------------------------------
e-----------------------------------------------------------------
e-----------------------------------------------------------------
b--------------------------------0---------0-----------0----------
g-4/5-5-5-5-7-4-4-4-4-4-2/4-14-----12--------12----------12-------
d-----------------------------------------------------------------
a-----------------------------------------------------------------
e-----------------------------------------------------------------
e-----------------------------------------------------------------
b-----------------------------------------------------------------
g-4/5-5-5----7-4-----9--4--10---9--10-12-10--9-10--12-109-7---9--
d-----------------------------------------------------------------
a-----------------------------------------------------------------
e-----------------------------------------------------------------
e-----------------------------------------------------------------
b-----------------------------------0-----------------------------
g-4/5-5-5----7-4-4-4-4---14-----------12---12br-------------------
d-----------------------------------------------------------------
a-----------------------------------------------------------------
e-----------------------------------------------------------------
*From The Official Book*
and this is where the solo stops in this tab
it’s 7 guitars rocking a whammy pedal up and down
and im not typing it out, sorry
that’s all
trevor jones
[email protected]




Ваше мнение



Капча