Not bad for my first tab. feel free to update it, take it as a startin point.
oh yeah, make sure you have drop-D tuning -- PeaRce
INTRO
G----------------------------------------|
D----------------------------------------| (very faint)
A-----66666666666666666666--4444444444---| (listen to timing)
D----------------------------------------|
CHORUS 1
G--------------------------------------------------------------------|
D--------------------------------------------------------------------| palm
A--6-6-6-6-6-6-6-6-4-4-4-4-4-4-4-4-9-9-9-9-9-9-9-9-9-9-9-9-9-9-9-9---| mute
D--------------------------------------------------------------------|
G--------------------------------------------------------------------------|
D--------------------------------------------------------------------------|
A--6-6-6-6-6-6-6-6-4-4-4-4-4-4-4-4-----------------------------------------|
D-----------------------------------4-4-4-4-4-4-4-4-6-6-6-6-6-6-6-6--------|
FIG 1
G---------------------------------------------------------|
D---------------------------------------------------------|
A-------------------------------------------------1-------|
D--4-4-4-4-4-4-4-4-6-6-6-6-6-6-6-6-1--11-11-1/3-1---1-1---|
CHORUS 2
G-----------------------------------------------------|
D-----------------------------------------------------|
A-----------------------------------------------------|
D-1-11-11-11-10-00-00-00-04-44-44-44-4-44-44-44-44----|
G-----------------------------------------------------|
D-----------------------------------------------------|
A-----------------------------------------------------|
D-1-11-11-11-10-00-00-00-04-44-44-44-46-66-66-66-6----|
And thats about it I reckon. Just listen to the timing, the bass is quiet in
certain parts of this song.




Ваше мнение



Капча