This tab is for the ones that knows who is A Perfect Circle really, and Donґt only know Judith and 3 Libras
The Hollow rules
here we go
.:;o==--
,o888P`
,o888P`
.o8888` .
o8888' ^8L.
.o888P `888.
.o888P `888o.
.o8888 `8888.
o8888^ '8888.
88888 `8888.
.88888 8888o
.8888o 8888P
88888 8888^
^8888, .8888
88888. .8888'
'88888 888P'
'88888. 888^
`88888. .88^
`8888o. .o^`
'*8888.
'^*88o.
^*''`
e------------------------------------------------|
B------------------------------------------------|
G------------------------------------------------|
D--7-/-9--9--7--7--7--x-x-2--2--x--x--0----------|
A--7-/-9--9--7--7--7--x-x-2--2--x--x--0----------|
D--7-/-9--9--7--7--7--x-x-2--2--x--x--0----------|
LEAD OVER INTRO
e-----------------------------------|
B-----------------------------------|
G----11------14--14-17---11---7-----|
D-----------------------------------|
A----9-------12--12/15---9----5-----|
D-----------------------------------|
INTRO VERSE 1
*harmonics with pitch shift
e--------------------------------------|
B---------*9------------*9-----------------|
G--------*9-*9---------*9-*9----------------|
D--9----*9---*9---9---*9---*9---------------|
A--9---*9-----*9--9--*9-----*9--------------|
D--9--------------9----------------------|
Chorus
e-----------------------|
B-----------------------|
G-----------------------|
D--5--4--0-----7-7-7----|
A--5--4--0-----7-7-7----|
D--5--4--0-----7-7-7----|
Chorus
LEAD (roughly)
part 1
e--14--17--14-----14---------------------|
B--------------15-----15--12--13---------|
G----------------------------------14----|
D----------------------------------------|
A----------------------------------------|
D----------------------------------------|
part 2
e------------------------------------------------|
B-------------10--8--7---------7---------10---8--|
G---6--7--9---------------7----6---7--9----------|
D------------------------------------------------|
A------------------------------------------------|
D------------------------------------------------|
[Bridge]
clean (bass plays this part, but guitar can double like this)
e------------------------------|
B--3--/--5--\--3---3---3---3---|
G--2--/--4--\--2---2---2---x---|
D--0-----0-----0---0---2---2---|
A--0-----0-----0---0---0---2---|
D--------------------------2---|
Gtr lead in
e------------------------------------|
B--10-12-14----17--17--19--12--------|
G------------------------------------|
D--7--9--11----14--14--16--9---------|
A------------------------------------|
D------------------------------------|
...out of bridge
e---------------------|
B---------------------|
G---------------------|
D---9--7---2---0------|
A---9--7---2---0------|
D---9--7---2---0------|
[Bulid-up]
p.m...............
E---------------------------|
B---------------------------|
G-----4-----6----7---12-----|
D-----4-----6----7---12-----| Repeat
A---0^2-----4----5---10-----|
D---------------------------|
[Gtr 2 lead]
e--------------------------------|
B--------------------------------|
G--16--16--14--9--11-7--6--------|
D--------------------------------|
A--14--14--12--7--9--5--4--------|
D--------------------------------|
repeat chorus......
So thats it, enjoy playing "The Hollow"
And Viva Mexico




Ваше мнение



Капча