!!! South Wales !!!Tuning: C# F# B E G# C#
Intro
|---------------------------------------------------|
|---------------------------------------------------|
|---------------------------------------------------|
|------0---0---0---0--------------------------------|
|-4--4---4---2---2-------11p9-11p9--11p9--11p9-11p9-|
|--------------------0-0-0--0--0-0---0-0---0-0--0-0-|
Verse
Gtr.1(Troy)
|-------------------------------------------------------
|-------------------------------------------------------
|-------------------------------------------------------
|-------------------------------------------------------
|-11-11-11-11-11-11-11-11-11-11-11-11-11-11-11-11-11-11-
|0--0--0--0--0--0--0--9--9--9--9--9--9--9--9--9--9--9--9
p.m.................................................................
|------------------|
|------------------|
|------------------|
|------------------|
|-9-9-9-9-9-9-9-9--|
|-7-7-7-7-7-7-7-7--|
p.m.............

Gtr.2(Billy) Prt1
|-------------------------------------------------
|-------------------------------------------------
|----------9*-9*----------------------------------
|--------9~~--------------------------------------
|11-11/12--------11-11/12-7---------11-11/12------
|-------------------------------------------------
Prt2
|---------------------------------------------------
|---------------------------------------------------
|---------------------------------------------------
|---------------------------9~~---12~-9~-12~-11-9--
|---------------------------------------------------
|---------------------------------------------------
Bridge
|----------------------------------|
|----------------------------------|
|----------------------------------|
|-6-6-6/7-7/9-9-9/12-12-12-9--9-9--|
|-x-x-x-x-x-x-x-x--x--x--x-x--x-x--|
|-4-4-4/5-5/7-7-7/10-10-10-7--7-7--|
Chorus
|---------------------------------------------------|
|---------------------------------------------------|
|---------------------------------------------------|
|-------------------------------------0---0---0---0-|
|-----11p9-11p9--11p9--11p9-11p9-4-4---4---2---2----|
|-0-0-0--0--0-0---0-0---0-0--0-0--------------------|
Bridge 2
Gtr.1(Troy)
|-----------------------------------|
|-----------------------------------|
|-----------------------------------|
|-6-6-6/7-7/9-9-9/12--12-12-9--9-9--|
|-x-x-x-x-x-x-x-x--x---x--x-x--x-x--|
|-4-4-4/5-5/7-7-7/10--10-10-7--7-7--|
Gtr.2(Billy)
|-------------------------------------------------|
|-------------------------------------------------|
|-13-13-13-13-13-13-13-13-11-11-11-11-11-11-11-11-|
|--x--x--x--x--x--x--x--x--x--x--x--x--x--x--x--x-|
|-11-11-11-11-11-11-11-11--9--9--9--9--9--9--9--9-|
|-------------------------------------------------|
Interlude
Gtr.1(Troy)
|-------------------------------------------------|
|-------0--0--------0--0-------0--0---0---0---0---|
|-6-----6h-7--6-----6h-7--6----6--6/--9---9---9 -|
|-0--0--0--0--0--0--0--0--0--0-0--0---0---0---0---|
|-7--7--7--7--7--7--7--7--7--7-7--7/--10--10--10-|
|-5--5--5--5--5--5--5--5--5--5-5--5/--8---8---8 -|
|-----------------------------------------------|
|----0--0-----0--0--0--0--0--0--0--0---0--------|
|-6--6h-7--6--6--6--6-4--4--4/-11-11--11------|
|-0--0--0--0--0--0--0--0--0--0--0--0---0----0---|
|-7--7--7--7--7--7--7--7-5--5--5/-12--12---12-|
|-5--5--5--5--5--5--5--5-3--3--3/-10--10---10-|
Solo
Gtr.1(Billy)
|-------------------------------------|
|-------------------------------------|
|-6--6-6h7-6--6-6-6h7-6--6-6-7h9-9-9--|
|-------------------------------------|
|-------------------------------------|
|-------------------------------------|
|-------------------------------------|
|-------------------------------------|
|-6--6-6h7-6--6-6-6h7-63-3/11-11-11---|
|-------------------------------------|
|-------------------------------------|
|-------------------------------------|x2
|-----------------------------------------------------|
|-----------------------------------------------------|
|-13--13-13-16-13--13-13-16-13--13--13-16-18-16-14-16-|
|-----------------------------------------------------|
|-----------------------------------------------------|
|-----------------------------------------------------|
|-----------------------------------------------|
|-----------------------------------------------|
|-13--13-13-16-13--13-13-16-139-9/18-16-14-16---|
|-----------------------------------------------|
|-----------------------------------------------|
|-----------------------------------------------|
|-----------------------------------------------------|
|-----------------------------------------------------|
|-13--13-13-16-13--13-13-16-13--13--13-16-18-16-14-16-|
|-----------------------------------------------------|
|-----------------------------------------------------|
|-----------------------------------------------------|
|------------------------------------------|
|------------------------------------------|
|-13-13-13-16-13-11-13-11-9-11-9p7-5-7-5-4-|
|------------------------------------------|
|------------------------------------------|
|------------------------------------------|
Outro
|----------------------------------------------------|
|----------------------------------------------------|
|----------------------------------------------------|
|--------------------------------------0---0---0---0-|
|-----11p9-11p9--11p9--11p9-11p-9-4-4---4---2---2----|
|-0-0-0--0--0-0---0-0---0-0--0--0--------------------|




Ваше мнение



Капча