Judith by A Perfect Circle.
Tabbed by Adam Wallace [email protected]

Name: Adam Wallace
email: [email protected]
Judith by A Perfect Circle
Tuning: Drop D flat- Tune to e flat then drop the low string to d flat
Opening Riff x2
------------------------------------------------------------
---------------------------------------------------13-13-12-
---------------------------------------------------12-12-11-
-10-12-12-12-0-10-12-13-12-10-12-10-12-12-12-12-12-10-10-9--
-10-12-12-12-0-10-12-13-12-10-12-10-12-12-12-12-12----------
-10-12-12-12-0-10-12-13-12-10-12-10-12-12-12-12-12----------
Or like this: Not as easy, but it sounds better
------------------------------------------------------------
-----------------------------------13-13-12-----------------
-5-7-7-7---5-7-8-7-5-7-5-7-7-7-7-7-12-12-11-----------------
-----------------------------------10-10-9------------------
-3-5-5-5---3-5-6-5-3-5-3-5-5-5-5-5--------------------------
---------0--------------------------------------------------
x2
-----------------------------------------------------------
-----------------------------------------------------------
-----------------------------------------------------------
-10-12-12-12-0-10-12-13-12-10-12-10-12-12-12-12-12-3-3-3---
-----------------------------------------------------------
-----------------------------------------------------------
----------------------
----------------------
----------------------
-3-p0-----------------
------/5-5b-----------
----------------------
Verse x4
------------------------------------------------------------
------------------------------------------------------------
----------------------------------(10)(10)(10)-4th time only
----------------------------------(10)(10)(10)-4th time only
-3-5-5-5-0-3-5-6-5-3-5-3-5-5-5-5-0-8---8---8----------------
------------------------------------------------------------
or like this on the low string
-10-12-12-12-0-10-12-13-12-10-12-10-12-12-12-12-0-15-15-15--
kick in with heavy distortion on the 15's the fourth time through,
just like in the other way on the A string.
Repeat 4th verse x4 only with more distortion--listen to the song
Chorus x3
---------------------------- ----------------------
---------------------------- ----------------------
-13-12-7-7-7-7-8-7----------then play this-12-11-14-14-14-16-9--
----------------------------the 4th time ----------------------
-11-10-5-5-5-5-6-5---------- -10-9--12-12-12-14-7--
---------------------------- ----------------------
Slide Riff
Billy Howerdel uses a slide, but it still works without one....
-----15-----13-----15-----13-----15-----/17----
-/15----/13----/15----/13----/15----/13--------
-----------------------------------------------
-----------------------------------------------
-----------------------------------------------
-----------------------------------------------
little interlude before next verse
---------------------------------------
---------------------------------------
-14-14-14-14-16-12-12-11-11-11-12-7----
---------------------------------------
-12-12-12-12-14-10-10-9--9--9--10-5----
---------------------------------------
Then x3
---------------------------------------
---------------------------------------
-13-12-7-7-7-8-7-----------------------
---------------------------------------
-11-10-5-5-5-6-5-----------------------
---------------------------------------
Then x2
------------------------16-------------------------------
-13-h15-15-15-13-13-h15----15-13-h15-13-h15-15-15-13-10--
---------------------------------------------------------
---------------------------------------------------------
---------------------------------------------------------
---------------------------------------------------------
Back to verse
Troy plays this over the 2nd verse
----------------------------------
-12-13-12-13-13-13-13-13-15-------
----------------------------12----
----------------------------------
----------------------------------
----------------------------------
Play intro riff x2 then this x2
--------------------------------------------------------------
------------------------------------------------------13b----- probably not right
------------------------------------------------------12b----- but it sounds okay
-10-12-0-0-0-0--------------------15-15-15------------10b-----
-10-12-0-0-0-0-x3-then--1st time--15-15-15--2nd time----------
-10-12-0-0-0-0--------------------15-15-15--------------------
Chorus
Slide Riff
Things get kind of mixed up so I tabbed the whole last minute or so
--------------------------------------
--------------------------------------
-14-14-14-14-16-13-13-11-11-11-12-7---
--------------------------------------
-12-12-12-12-14-10-10-9--9--9--10-5---
--------------------------------------
--------------------------------------
-15-15-15-15-13-/17-17b-15----------
--------------------------------------
--------------------------------------
--------------------------------------
--------------------------------------
--------------------------------------
-15-15-15-13-13-13b-10-10-10b-8------
--------------------------------------
--------------------------------------
--------------------------------------
--------------------------------------
--------------------------------------
-15-15-15-13-13-17b------------------
--------------------------------------
--------------------------------------
--------------------------------------
--------------------------------------
Slide Riff
Then this x3
--------------------------------------
--------------------------------------
-14-14-14-14-16-12-12-11-11-11-12-7---
--------------------------------------
-12-12-12-12-14-10-10-9--9--9--10-5---
--------------------------------------
End with this
--------------------------------------
-------------------------------15-----
-14-14-14-14-16-12-12-11-11-12-14-----
-------------------------------12-----
-12-12-12-12-14-10-10-9--9--10-12-----
--------------------------------------
And that's it! I know i didn't get it all
right so just listen to the song and get the
little extras i missed.




Ваше мнение



Капча