Artist: A Perfect Circle
Song: Judith
Album: Mer De Noms
pm.: Palm Mute
^: Bend
h: Hammer-on
/: Slide Forward
: Slide Backward
~: Let Note Ring (Vibrato)
(): Ghost Note
Drop D tuning, tune down 1 1/2 step (B F# B E G# C#)
Intro

|---------------------------------------------|
|---------------------------------------------|
|-7/9-9-9-x-x-7/9-109-7/9---7/9-9-9/19-19-18-|
|-x---x-x-x-x-x---x----x-----x---x-x-x--x--x--|
|-5/7-7-7-x-x-5/7-8 7-5/7---5/7-7-7/17-17-16-|
|---------------------------------------------| x2
|--------------------------------------------|
|-7h9-9-9-9-9-7h9-109-7h9-7h9-9-9-9-7-------|
|--------------------------------------5-5-5-|
|--------------------------------------------|
|--------------------------------------------|
|--------------------------------------------| x2
w/delay & reverb
|------------------------|
|------------------------|
|------------------------|
|------------------------|
|-105/7-7---7^~~(7)-57-|
|------------------------|
grad. bend 1/2 step
Verse
|-------------------------------------------|
|-------------------------------------------|
|-------------------------------------------|
|-------------------------------------------|
|-0-2-2-2---2-0-2-3-2-0-2-0-2-2-2-2-0-5-5-5-|
|-0-2-2-2---2-0-2-3-2-0-2-0-2-2-2-2-0-5-5-5-| x3
p.m.........................................
|---------------------------------------------|
|---------------------------------------------|
|---------------------------------------------|
|-------------------------------------5-5-5/7-|
|-0-2-2-2---2-0-2-3-2-0-2-0-2-2-2-2-0-5-5-5/7-|
|-0-2-2-2---2-0-2-3-2-0-2-0-2-2-2-2-0-5-5-5/7-| x4
p.m..................................|
|--------------------------------------------|
|--------------------------------------------|
|--------------------------------------------|
|--------------------------------------------|
|-0-2-2-2---2-0-2-3-2-0-2-0-2-2-2-2-0--------|
|-0-2-2-2---2-0-2-3-2-0-2-0-2-2-2-2-0-5-5^-2-|
p.m..................................|
bend 1 1/2 step
Chorus
|--------------------------------------|
|--------------------------------------|
|-15--15-15-15/14-14-14/9--9-9-9^-9^-9-|
|-x---x--x--x-----x--x--x--x-x-x-----x-|
|-13--13-13-13/12-12-12/7--7-7-7^-7^-7-|
|--------------------------------------| x3
bend 1/2 step
|---------------------------------|
|---------------------------------|
|-/14---13---16-16-16-16-16/19-11-|
|--x----x----x--x--x--x--x-----x--|
|-/12---11---14-14-14-14-14/17-9--|
|---------------------------------|
|-------------17---17-17----------15---15-15----------17---17-1715--
|-5/17---17-------------/15---15-------------/17---17-------------15--
|----------------------------------------------------------------------
|----------------------------------------------------------------------
|----------------------------------------------------------------------
|----------------------------------------------------------------------
------15---15-15----------17---17-1715--------/19---(19)/20-|
-15-------------/17---17-------------/15---15-----------------|
--------------------------------------------------------------|
--------------------------------------------------------------|
--------------------------------------------------------------|
--------------------------------------------------------------|
|------------------------------------------|
|-/12-12-12-12-12/15-10---10---9---9/10----|
|---------------------------------------9-|
|------------------------------------------|
|------------------------------------------|
|------------------------------------------|
|--------------------------------------------------------------
|-/15---1514-14----------------------------1514-14---(14)--
|-/15---------149---9-9-9/109---9-9-9/15---------14---(14)--
|--------------------------------------------------------------
|--------------------------------------------------------------
|--------------------------------------------------------------
---------------------------------------------------------------------|
------------------------/15---------14---14-------------------------|
-/9---9-9-9/109---9-9-9/15---1514-14---14---/9---9-9-9/109/797-|
-----------------------------------------------/9---9-9-9/109/797-|
---------------------------------------------------------------------|
---------------------------------------------------------------------|
Solo
|-10h12-12-12---10h12/1712-10h12-10h12-12-12-12-10-7-7-7-|
|---------------------------------------------------------|
|---------------------------------------------------------|
|---------------------------------------------------------|
|---------------------------------------------------------|
|---------------------------------------------------------| x2
w/digitech Whammy pedal
|------------------------------------------------------------|
|-14-15~~~14---15---15---(15)/15---15-15-15^----------------|
|---------------------------------------------14---14-14-14^-|
|------------------------------------------------------------|
|------------------------------------------------------------|
|------------------------------------------------------------|
bend 1 step
|---------------------------------------------|
|---------------------------------------------|
|------------------------------------19-19-18-|
|-7/9-9-9-----7/9-109-7/9---7/9-9-9/x--x--x--|
|-5/7-7-7-7-7-5/7-8 7-5/7---5/7-7-7/17-17-16-|
|---------------------------------------------| x2
|---------------------------------------------|
|---------------------------------------------|
|---------------------------------------------|
|-------------------------------------5-5-5/7-|
|-0-2-2-2---2-0-2-3-2-0-2-0-2-2-2-2-0-5-5-5/7-|
|-0-2-2-2---2-0-2-3-2-0-2-0-2-2-2-2-0-5-5-5/7-|
p.m..................................|
|-------------------------------------------|
|-------------------------------------------|
|-------------------------------------------|
|---------------------------------------5---|
|-0-2-2-2---2-0-2-3-2-0-2-0-2-2-2-2-0-------|
|-0-2-2-2---2-0-2-3-2-0-2-0-2-2-2-2-0/5---2-|
p.m......................|
|--------------------------------------|
|--------------------------------------|
|-15--15-15-15/14-14-14/9--9-9-9^-9^-9-|
|-x---x--x--x-----x--x--x--x-x-x-----x-|
|-13--13-13-13/12-12-12/7--7-7-7^-7^-7-|
|--------------------------------------| x3
bend 1/2 step
|---------------------------------|
|---------------------------------|
|-/14---13---16-16-16-16-16/19-11-|
|--x----x----x--x--x--x--x-----x--|
|-/12---11---14-14-14-14-14/17-9--|
|---------------------------------|
|-------------17---17-17----------15---15-15----------17---17-17------
|-5/17---17-------------/15---15---------------/17---17-------------/15--
|------------------------------------------------------------------------
|------------------------------------------------------------------------
|------------------------------------------------------------------------
|------------------------------------------------------------------------
------15---15-15----------17---17-17----------/19---(19)/20---|
-15-------------/17---17---------------/15---15-----------------|
----------------------------------------------------------------|
----------------------------------------------------------------|
----------------------------------------------------------------|
----------------------------------------------------------------|
|----------------------------------------------|
|-/12-12-12-12-12/15-10---10-10--9---9-9/10----|
|-------------------------------------------9-|
|----------------------------------------------|
|----------------------------------------------|
|----------------------------------------------|
|----------------------------------------------
|-/17-17-17-17-1715-15-15-15-15/19-19/20-17--
|----------------------------------------------
|----------------------------------------------
|----------------------------------------------
|----------------------------------------------
----------------------------------------------------------------------
-/17---1715-15-15-15/2012-12-12-12---1210-10-10-10/17-17-17-17-17--
----------------------------------------------------------------------
----------------------------------------------------------------------
----------------------------------------------------------------------
----------------------------------------------------------------------
---------------------------|
-1715-15-15-15/19-(19)/24-|
---------------------------|
---------------------------|
---------------------------|
---------------------------|
|----------------------------------------------------|
|----------------------------------------------------|
|-16-16-16-16/19-14-14-14-1413---13---13-13/14-9-9-|
|-x--x--x--x-----x--x--x--x-------x----x--x-----x-x--|
|-14-14-14-14-17-12-12-12-1211---11---11-11/12-7-7-|
|----------------------------------------------------|
|--------------------------------------------
|-/17---1715---/19---(19)/20-17---(17)/17--
|--------------------------------------------
|--------------------------------------------
|--------------------------------------------
|--------------------------------------------
-/17-17-17-17-17---1715-15-15-15---/19---(19)/24--|
---------------------------------------------------|
---------------------------------------------------|
---------------------------------------------------|
---------------------------------------------------|
---------------------------------------------------|
|----------------------------------------------------|
|----------------------------------------------------|
|-16-16-16-16/19-14-14-14-1413---13---13-13/14-9-9-|
|-x--x--x--x-----x--x--x--x-------x----x--x-----x-x--|
|-14-14-14-14-17-12-12-12-1211---11---11-11/12-7-7-|
|----------------------------------------------------| x3
|-----------------------------------------------|
|-----------------------------------------------|
|-16-16-16-16/19-14-14-14-1413-13-13-14-/12~~~-|
|-x--x--x--x-----x--x--x--x--x--x--x--x--/12~~~-|
|-14-14-14-14-17-12-12-12-1211-11-11-12--------|
|-----------------------------------------------|




Ваше мнение



Капча