Artist- A Perfect Circle
Song- Judith (Solo)
Tab- Jonathan Bissonnette

Tuning- Db Ab Db Gb Bb Eb

w/slide

|-10-10-10--------12/10--10-10-10-------------------------|
|-----------13-13-----------------13-13-13/10-10-10/8-8-8-|
|---------------------------------------------------------|
|---------------------------------------------------------|
|---------------------------------------------------------|
|---------------------------------------------------------|

|-10-10-10-------12-12/17--|
|----------13-13-----------|
|--------------------------|
|--------------------------|
|--------------------------|
|--------------------------|




Ваше мнение



Капча