Sup boys n girls, i noticed that there wasn't a tab 4 this yet but here u go its
only the main tune but i thinks its 100% top notch stuff, lol!! here u go:

E----------0----------0----10---------0------------0----
B-------10---------10---10---------10-----------10------
G-----0----------0--------------0------------0---------
D---7----------7--------------7------------7-----------
A-0----------0-----------------------------------------
E---------------------------8------------8-------------

E------------0----------0----0---------------
B---------10---------10---10-----------------
G-------0----------0-------------------------
D-0 --7----------7---------------------------
A---0----------0-----------------------------
E--------------------------------------------

There u go! If u want the rest figure it out 4 ur sen!!




Ваше мнение



Капча