----------------------------------------------------------------------------
YOU'VE GOT A FRIEND IN PENNSYLVANIA - New Found Glory
----------------------------------------------------------------------------
Tabbed by: Alex Swisher
Email: [email protected]
Tuning: Standard
STRUMMMING NOT SHOWN
Intro 1rst Guitar First time Second time
e-----------------------|-------------|--------------------------
B-----------------------|-------------|--------------------------
G-----------------------|-10----------|--------------------------
D---10-----10-----7-----|-10----------|--3-----------------------
A---10-----10-----7-----|--8----------|--3-----------------------
E----8------7-----5-----|-------------|--1-----------------------
Intro 2nd Guitar
e---------------------------------------------------------------------------
B---------------------------------------------------------------------------
G--5---9----4---11-------3p2p0--3p2p0--3p2p0----5---7-5---7-7h9p7-5-4-5-----
D--x---x----x---x---------------------------------5-----5-------------------
A--3---7----2---9-----------------------------------------------------------
E---------------------------------------------------------------------------
Verse
e-------------------------------------------------------------------------
B-------------------------------------------------------------------------
G--xx5--xx5--xx5--xx5-----------------------xx5--xx5--xx5--xx5------------
D--xx5--xx5--xx5--xx5---xx3--xx3--xx3--xx3--xx5--xx5--xx5--xx5--3---------X2
A--xx3--xx3--xx3--xx3---xx3--xx3--xx3--xx3--xx3--xx3--xx3--xx3--3let ring-
E-----------------------xx1--xx1--xx1--xx1----------------------1---------
Chorus
e--------------------|--|--------------------------------------
B--------------------|--|--------------------------------------
G-----------10-------|--|--------------------------------------
d----7--5---10----5--|X3|----7--5--3---------7--5--------------
A----7--5----8----5--|--|----7--5--3---------7--5--------------
E----5--3---------3--|--|----5--3--1---------5--3--------------
Musical Break
e----------------------|--|---------------------------------------
B----------------------|--|---------------------------------------
G----------------------|--|---------------------------------------
D-10-10---------10-----|X?|-10----10-----7------------2h3p2-------
A-10-10--10h12--10--10-|--|-10----10-----7---------3--------3-----
E--8--8----------7-----|--|--8-----7-----5-------1------------1-1-
Outro
e----------------------
B----------------------
G-10--9--5-------------
D-10--9--5let ring-----
A--8--7--3-------------
E----------------------

Intro
Verse
Chorus
Verse
Chorus
Intro (1rst Only)
Verse
Chorus
Intro (1rst Only)
Intro (Differect Rhythm)
Intro (1rst X2)
Musical Break
Intro end on Outro

| / slide up
| slide down
| h hammer-on
| p pull-off
| ~ vibrato
| + harmonic
| x Mute note
============================================================================




Ваше мнение



Капча