New Found Glory- Vegas.
Tabbed by Justal [email protected]

well im sorry to say i dont know the full version but this is basically whats goin on. u can et the rest once u know this.
intro:
[---------------------------------------------------]
[---------------------------------------------------]
[--------------------6-6----------------------------]
[--2-2--6-7-7-7------6-6-6-7-7-7--------------------]
[--2-2--6-7-7-7-x3---4-4-6-7-7-7--------------------]
[--0-0--4-5-5-5----------4-5-5-5--------------------]
verse:
[---------------------------------------------------]
[---------------------------------------------------]
[----------------------------6----------------------]
[--2-2-----2-2-----2-2-------6-6-7------------------]
[--2-2-----2-2-----2-2-------4-6-7------------------]
[--0-0-----0-0-----0-0---------4-5------------------]
for more tabs email me at [email protected]




Ваше мнение



Капча