#----------------------------------PLEASE NOTE--------------------------------#
#This file is the author's own work and represents their interpretation of the#
#song. You may only use this file for private study, scholarship, or research.#
#-----------------------------------------------------------------------------#
#-- File created with Instab - http://www.pconline.com/~smcarey/instab.html --#
#-----------------------------------------------------------------------------#

Author/Artist: New Found Glory
Title: Understatement
Album: Sticks and Stones
Transcribed by: Sean Merriam
Email: [email protected]

[email protected]-------------
-|----------------------------------------------------------------------------
-|-1-1-x-x-x-x--1-1-x-x-x-x--1-1-x-x-x-x--1-1-x-x-x-x-------------------------
-|-2-2-x-x-x-x--2-2-x-x-x-x--2-2-x-x-x-x--2-2-x-x-x-x-------------------------
-|-2-2-x-x-x-x--2-2-x-x-x-x--2-2-x-x-x-x--2-2-x-x-x-x-------------------------
-|----------------------------------------------------------------------------
Verse p.m

-|----------------------------------------------------------------------------
-|----------------------------------------------------------------------------
-|--1-------------------------------------------------------------------------
-|--2-------------------------------------------------------------------------
-|--2-------------------------------------------------------------------------
-|----------------------------------------------------------------------------
dont pm next part

-|----------------------------------------------------------------------------
-|----------------------------------------------------------------------------
-|----------------------------------------------------------------------------
-|--4--7----------------------------------------------------------------------
-|--4--7----------------------------------------------------------------------
-|--2--5----------------------------------------------------------------------

Before chorus is something like

-|----------------------------------------------------------------------------
-|----------------------------------------------------------------------------
-|----------------------------------------------------------------------------
-|--11-11-11-11---9-9-9-9---7-7-7-7---9-9-9-9---------------------------------
-|--11-11-11-11---9-9-9-9---7-7-7-7---9-9-9-9---------------------------------
-|--9--9--9--9----7-7-7-7---5-5-5-5---7-7-7-7---------------------------------


-|----------------------------------------------------------------------------
-|----------------------------------------------------------------------------
-|----------------------------------------------------------------------------
-|--11-11-11-11---9-9-9-9---7-7-7-7---9-x-9-----------------------------------
-|--11-11-11-11---9-9-9-9---7-7-7-7---9-x-9-----------------------------------
-|--9--9--9--9----7-7-7-7---5-5-5-5---7-x-7-----------------------------------


-|----------------------------------------------------------------------------
-|----------------------------------------------------------------------------
-|----------------------------------------------------------------------------
-|--11-11-11-11---9-9-9-9---7-7-7-7---9-9-9-9---------------------------------
-|--11-11-11-11---9-9-9-9---7-7-7-7---9-9-9-9---------------------------------
-|--9--9--9--9----7-7-7-7---5-5-5-5---7-7-7-7---------------------------------


-|----------------------------------------------------------------------------
-|----------------------------------------------------------------------------
-|----------------------------------------------------------------------------
-|--11-11-11-11---9-9-9-9--7---9-9--------------------------------------------
-|--11-11-11-11---9-9-9-9--7---9-9--------------------------------------------
-|--9--9--9--9----7-7-7-7--5---7-7--------------------------------------------

chorus

-|----------------------------------------------------------------------------
-|----------------------------------------------------------------------------
-|--1-1-----------------------------------------------------------------------
-|--2-2--4-4-4--7-7--9-9-9----------------------------------------------------
-|--2-2--4-4-4--7-7--9-9-9----------------------------------------------------
-|-------2-2-2--5-5--7-7-7----------------------------------------------------


-|----------------------------------------------------------------------------
-|----------------------------------------------------------------------------
-|--1-1-----------------------------------------------------------------------
-|--2-2--4-4-4--7-7--9-9-9----------------------------------------------------
-|--2-2--4-4-4--7-7--9-9-9----------------------------------------------------
-|-------2-2-2--5-5--7-7-7----------------------------------------------------


-|----------------------------------------------------------------------------
-|----------------------------------------------------------------------------
-|--1-1-1---------------------------------------------------------------------
-|--2-2-2--4-4-4--7-7--9-9-9--------------------------------------------------
-|--2-2-2--4-4-4--7-7--9-9-9--------------------------------------------------
-|---------2-2-2--5-5--7-7-7--------------------------------------------------


-|----------------------------------------------------------------------------
-|----------------------------------------------------------------------------
-|----------------------------------------------------------------------------
-|--11---7-x-7--9-9-----------------------------------------------------------
-|--11---7-x-7--9-9-----------------------------------------------------------
-|--9----5-x-5--7-7-----------------------------------------------------------

verse 2 is same as verse 1 but is played twice not four times

Pre chorus same as before

-|----------------------------------------------------------------------------
-|----------------------------------------------------------------------------
-|--1-1-----------------------------------------------------------------------
-|--2-2--4-4-4--7-7--9-9-9-----------------------------x3---------------------
-|--2-2--4-4-4--7-7--9-9-9----------------------------------------------------
-|-------2-2-2--5-5--7-7-7----------------------------------------------------


-|----------------------------------------------------------------------------
-|----------------------------------------------------------------------------
-|----------------------------------------------------------------------------
-|--11---7-x-7--9-9-----------------------------------------------------------
-|--11---7-x-7--9-9-----------------------------------------------------------
-|--9----5-x-5--7-7-----------------------------------------------------------


-|----------------------------------------------------------------------------
-|----------------------------------------------------------------------------
-|--1-x-x-x-x-x-1-------------------------------------------------------------
-|--2-x-x-x-x-x-2--4-x-x-x-x-x-4--7-x-x-x-x-x-7--7-x-x-x-x-x--9-9-------------
-|--2-x-x-x-x-x-2--4-x-x-x-x-x-4--7-x-x-x-x-x-7--7-x-x-x-x-x--9-9-------------
-|-----------------2-x-x-x-x-x-2--5-x-x-x-x-x-5--5-x-x-x-x-x--7-7---x3--------


-|----------------------------------------------------------------------------
-|----------------------------------------------------------------------------
-|--1-1-----------------------------------------------------------------------
-|--2-2---4-4-4--7-7--9-9-9---------------------------------------------------
-|--2-2---4-4-4--7-7--9-9-9---------------------------------------------------
-|--------2-2-2--5-5--7-7-7---------------------------------------------------


-|----------------------------------------------------------------------------
-|----------------------------------------------------------------------------
-|----------------------------------------------------------------------------
-|--11--7-x-7--9-9------------------------------------------------------------
-|--11--7-x-7--9-9------------------------------------------------------------
-|--9---5-x-5--7-7------------------------------------------------------------


-|----------------------------------------------------------------------------
-|----------------------------------------------------------------------------
-|--1-1-----------------------------------------------------------------------
-|--2-2--4-4-4-4--7-7--9-9-9--------------------------------------------------
-|--2-2--4-4-4-4--7-7--9-9-9--------------------------------------------------
-|-------2-2-2-2--5-5--7-7-7--------------------------------------------------

Play chorus 2x

-|----------------------------------------------------------------------------
-|----------------------------------------------------------------------------
-|--1-x-x-x-x--1--------------------------------------------------------------
-|--2-x-x-x-x--2--------------------------------------------------------------
-|--2-x-x-x-x--2--------------------------------------------------------------
-|----------------------------------------------------------------------------




Ваше мнение



Капча