artist: new found glory
song: understatement
album: sticks and stones
it's a great simple opening song!!!!
INTRO
Guitar A&B
e------------------|
b------------------|
g------------------|3x
d---2--2---2-2-2---|
a---2--2---2-2-2---|
E---0--0---0-0-0---|
pm - - -
PRE-VERSE
Guitar A
e-----------|
b-----------|
g-----------|
d---2-------|
a---2-------|
E---0-------|
Guitar B (w/flanger) *=14x(pm)
e-----------|
b-----------|
g-----------|
d---2-------|
a---2---*---|
E---0--0----|
VERSE
Guitar A *=29x(pm) #=4x
e---------------------------------|
b---------------#----#----#----#--|
g--------------6----6----9----9---|4x
d---2----------4----4----7----7---|
a---2---*------4----4----7----7---|
E---0--0--------------------------|
Guitar B *=29x(pm) #=4x
e---------------------------------|
b---------------------------------|
g---------------#----#----#----#--|4x
d---2----------4----4----7----7---|
a---2---*------4----4----7----7---|
E---0--0-------2----2----5----5---|
PRE-CHORUS
Guitar A *=4x #=6x(pm) 1.3 2 4
e---------------------------------|------------|----------|
b----*----*----*----*----*----*---|-*------#---|----------|
g---6----4----2----2----6----4----|2----4-4----|2---4--4--|
d---6----4----0----2----4----4----|0----4-2----|2---4--4--|
a---4----2----0----2----4----2----|0----2-2----|0---2--2--|
E---------------------------------|------------|----------|
Guitar B #=6x(pm) 1.3 2 4
e------0----0----0----0----0----0-|---0--------|----------|
b------0----0----0----0----0----0-|---0----#---|----------|
g---6----4----2----2----6----4----|2----4-4----|2---4--4--|
d---6----4----0----2----4----4----|0----4-2----|2---4--4--|
a---4----2----0----2----4----2----|0----2-2----|0---2--2--|
E---------------------------------|------------|----------|
CHORUS
Guitar A play all notes 4x
e-------------------|
b-------------------|
g-----------2---4---|3x
d---2---4---2---4---|
a---2---4---0---2---|
E---0---2-----------|
Guitar B play all notes 4x
e-------2---5---7---|
b-------2---5---7---|
g-------3---6---8---|3x
d---2---4---7---9---|
a---2---4---7---9---|
E---0---2---5---7---|
POST CHORUS
Guitar A&B
e------------------------|
b------------------------|
g---6---2--2-2---4---4---|
d---6---2--2-2---4---4---|
a---4---0--0-0---2---2---|
E------------------------|
pm - -
then play pre-verse, verse(1/2x), pre-chorus, chorus
BRIDGE
Guitar A&B *=5x(pm)
e------------------------------------------------>
b------------------------------------------------>
g----*----------*----------*----------*---------->
d---2----2--2--4----4--4--7----7--7--7----9--9--->
a---2----2--2--4----4--4--7----7--7--7----9--9--->
E---0----0--0--2----2--2--5----5--5--5----7--7--->
Guitar A *=5x(pm) 1.3 2 4
e------------------------------------|------------|-----------|
b------------------------------------|------------|-----------|
g----*----------*----------*---------|-*----------|-*---------|
d---2----2--2--4----4--4--7----7--7--|7----7--7---|7----9--9--|
a---2----2--2--4----4--4--7----7--7--|7----7--7---|7----9--9--|
E---0----0--0--2----2--2--5----5--5--|5----5--5---|5----7--7--|
guitar B *=16x #=8x 1.3 2 4
e------------------------------------|------------|-----------|
b----*----------*--------------------|------------|-----------|
g---9---------11-----------*---------|-*----------|-#---------|
d---x----------x----------7----------|7-----------|7----9--9--|
a---7----------9----------0----------|0-----------|0----9--9--|
E------------------------------------|------------|-----7--7--|
then play chorus(guitar A only), post chorus, chorus 2x, post chorus
OUTRO
Guitar A&B *=5x(pm)
e------------|
b------------|
g----*-------|
d---2---2----|
a---2---2----|
E---0---0----|
that's it! it's my 1st tab!
its 100% f***in right!!
tabbed by RIAN SIGIT ([email protected])




Ваше мнение



Капча