-------------------------------------------------------------------------------
Understatement – New Found Glory
-------------------------------------------------------------------------------
Taken from their new album ‘Sticks And Stones’
Standard Tuning
By: Jason Thompson
This song is cool and really easy. New Found Glory are excellent and Sticks And Stones is a great album. Enjoy the tab.
Intro:
e|---------------------------------------------------------------------------|
B|---------------------------------------------------------------------------|
G|---------------------------------------------------------------------------|
D|-2-2-2-2-2-2------X4-----2-------------------------------------------------|
A|-2-2-2-2-2-2-------------2---let-ring--------------------------------------|
E|-0-0-0-0-0-0-------------0-------------------------------------------------|
PM . . . .
Verse : Part One – ‘I’m sick of smiling…’
e|---------------------------------------------------------------------------|
B|---------------------------------------------------------------------------|
G|---------------------------------------------------------------------------|
D|-2--2-2-2-2-2-2-2-2-2-2-2-2-2-2-2-2----44444444---77777777-----X4----------|
A|-2--2-2-2-2-2-2-2-2-2-2-2-2-2-2-2-2----44444444---77777777-----------------|
E|-0--0-0-0-0-0-0-0-0-0-0-0-0-0-0-0-0----22222222---55555555-----------------|
PM . . . . . . . . . . . . . . . .
Verse : Part Two – ‘I’ll wire these nerves…’
e|---------------------------------------------------------------------------|
B|---------------------------------------------------------------------------|
G|-999999-------------------------------999999-------------------------------|
D|-999999--999999---777777---999999-----999999--999999--777777---9-9-9-9-9-9-|
A|-777777--999999---777777---999999-----777777--999999--777777---9-9-9-9-9-9-|
E|---------777777---555555---777777-------------777777--555555---7-7-7-7-7-7-|
PM . . . . .
e|---------------------------------------------------------------------------|
B|---------------------------------------------------------------------------|
G|-999999--------------------------------------------------------------------|
D|-999999---999999---777777---999999-----------------------------------------|
A|-777777---999999---777777---999999-----------------------------------------|
E|----------777777---555555---777777-----------------------------------------|
Chorus:
e|---------------------------------------------------------------------------|
B|---------------------------------------------------------------------------|
G|---------------------------------------------------------------------------|
D|-222---444---777---999----X3-----2--------------22--44-7-------------------|
A|-222---444---777---999-----------2—let-ring-----22--44-7-------------------|
E|-000---222---555---777-----------0--------------00--22-5-------------------|
Interlude:
e|---------------------------------------------------------------------------|
B|---------------------------------------------------------------------------|
G|---------------------------------------------------------------------------|
D|-2-2-2-2-2--2---4-4-4-4-4---4---7-7-7-7-7---7---9-9-9-9-9---9-----X3-------|
A|-2-2-2-2-2--2---4-4-4-4-4---4---7-7-7-7-7---7---9-9-9-9-9---9--------------|
E|-0-0-0-0-0--0---2-2-2-2-2---2---5-5-5-5-5---5---7-7-7-7-7---7--------------|
PM . . . . . . . . . . . . . . . . . . . .
Then Jordan Sings The Chorus But The Guitars Are Played Clean
e|---------------------------------------------------------------------------|
B|---------------------------------------------------------------------------|
G|---------------------------------------------------------------------------|
D|-222---444---777---999----X3-----2--------------22--44-7-------------------|
A|-222---444---777---999-----------2—let-ring-----22--44-7-------------------|
E|-000---222---555---777-----------0--------------00--22-5-------------------|
Guitars Are Distorted Again At This Point
When Jordan Sings ‘Call me again…’ play
e|---------------------------------------------------------------------------|
B|---------------------------------------------------------------------------|
G|---------------------------------------------------------------------------|
D|-2-2-4-4-7-7-9-9-----------------------------------------------------------|
A|-2-2-4-4-7-7-9-9-----------------------------------------------------------|
E|-0-0-2-2-5-5-7-7-----------------------------------------------------------|
Ending:
e|---------------------------------------------------------------------------|
B|---------------------------------------------------------------------------|
G|---------------------------------------------------------------------------|
D|--2-2-2-2-2----2-----------------------------------------------------------|
A|--2-2-2-2-2----2---let-ring------------------------------------------------|
E|--0-0-0-0-0----0-----------------------------------------------------------|
PM . . . . .
===============================================================================




Ваше мнение



Капча