Intro
G|-------------------------|-|---------------------------------
D|-------------------------|-|--------------------------------- x2
A|-------------------2-3>--|-|---------------------------------
E|--3>--0>-xx0-3-----------|-|-1>-3>-0>-1>-1>-3>-0>------------

second time through the intro let the last note ring (E)

Verse
G|---------------------------------|-|-------------------------------
D|---------------------------------|-|-------------------------------
A|--5-3>-5-3>-5-3>-5-77------------|-|--3>-5>-2>-3>--33-2------------ x2
E|---------------------------------|-|--------------------3>---------
------------------
------------------
second time through the verse only play--3>-5>-2>-3>--3--
------------------

Chorus
G|---------------------------
D|---------------------------
A|-------------------2-3>----
E|--3>--0>-xx0-3-------------

Order:
Intro
Verse x2
Chorus x4
2nd part of intro x2
Verse
Chorus x4




Ваше мнение



Капча