Song: This Disaster
Artist: NFG
Album: Catalyst
Tabbed by: Dan Benz ([email protected])
Just got the new CD, decided to tab a song from it. Liked this one.
Tabbed it. End of story.
Intro
Guitar 1
{e|----------------------------------------|
{B|----------------------------------------|
{G|----------------------------------------| Repeat
{D|----4h5----4h5--2p0----0h2----0h2-------| 4X
{A|-----------------------------------4p0--|
{E|----------------------------------------|
{ Guitar 2
{e|----------------------------------------|
{B|----------------------------------------| Enter after Guitar 1
{G|--4-------------------------2-----------| repeats twice.
{D|--4------4-----5-----2------2------5----| Repeat 2X
{A|--2------4-----5-----2------0------5----|
{E|---------2-----3-----0-------------3----|
Verse 1
Guitar 2
e|-------------------------------------------------------------|
B|---------------------------------------2----3-3--------------|
G|--4-4------2-------------2----4-4------2----0-0---------2-2--| Repeat
D|--4-4------2----5-5------2----4-4------2----0-0----5-5--2-2--| 3X
A|--2-2------0----5-5------0----2-2------0----X-X----5-5--0-0--|
E|----------------3-3-------------------------3-3----3-3-------|
Guitar 2
e|-------------------------------------------------------------|
B|---------------------------------------2----3-3--------------|
G|--4-4------2-------------2----4-4------2----0-0--------------|
D|--4-4------2----5-5------2----4-4------2----0-0------5-------|
A|--2-2------0----5-5------0----2-2------0----X-X------3-------|
E|----------------3-3-------------------------3-3------3-------|

Guitar 1
e|-------------------------------------------------------------| This riff comes in
B|----------------------------------------------7p5------------| after guitar 2
G|----------4p2-------------------------------------7-7--------| repeats twice
D|------4-2-----4p2-0---------------4-4-4-4-4-4----------------|
A|-------------------------------------------------------------|
E|-------------------------------------------------------------|
p.m. . . . . . . . .
Guitar 1
e|----------------------------------------------------|
B|-------------------------------------7h8------------|
G|----------4p2---------------------------------------|
D|------4-2-----4p2-0------4-4-4-4-4-4----------------|
A|----------------------------------------------------|
E|----------------------------------------------------|
p.m. . . . . . . . .
Chorus
Guitar 1
{e|-------------------------------------------------------------------|
{B|--3-3-3-3-3-3-3-3-3-3-3-3-3-3-3-3-5-5-5-5-5-5-5-5-5-5-5-5-5h87p5--|
{G|--2-2-2-2-2-2-2-2-0-0-0-0-0-0-0-0-6-6-6-6-6-6-6-6-6-6-6-6----------|
{D|--0-0-0-0-0-0-0-0-0-0-0-0-0-0-0-0-7-7-7-7-7-7-7-7-7-7-7-7----------|
{A|--0-0-0-0-0-0-0-0-0-0-0-0-0-0-0-0-7-7-7-7-7-7-7-7-7-7-7-7----------|
{E|-------------------------------------------------------------------|
{ Guitar 2
{e|----------------------------------0-0-0-0-0-0-0-0-0-0-0-0-0-0-0-0--|
{B|--3-3-3-3-3-3-3-3-3-3-3-3-3-3-3-3-2-2-2-2-2-2-2-2-2-2-2-2-2-2-2-2--|
{G|--2-2-2-2-2-2-2-2-0-0-0-0-0-0-0-0-2-2-2-2-2-2-2-2-2-2-2-2-2-2-2-2--|
{D|--0-0-0-0-0-0-0-0-0-0-0-0-0-0-0-0-2-2-2-2-2-2-2-2-2-2-2-2-2-2-2-2--|
{A|--0-0-0-0-0-0-0-0-0-0-0-0-0-0-0-0-0-0-0-0-0-0-0-0-0-0-0-0-0-0-0-0--|
{E|-------------------------------------------------------------------|
Guitar 1
{e|------------------3-3-3-3-2-2-2-2-0-0-0-0-0-0-0-0------------------|
{B|--3-3-3-3-3-3-3-3-3-3-3-3-3-3-3-3-2-2-2-2-2-2-2-2------------------|
{G|--2-2-2-2-2-2-2-2-0-0-0-0-2-2-2-2-2-2-2-2-2-2-2-2-2-2-2-2-2-2-2-2--|
{D|--0-0-0-0-0-0-0-0-0-0-0-0-0-0-0-0-2-2-2-2-2-2-2-2-2-2-2-2-2-2-2-2--|
{A|--0-0-0-0-0-0-0-0-0-0-0-0-0-0-0-0-0-0-0-0-0-0-0-0-0-0-0-0-0-0-0-0--|
{E|-------------------------------------------------------------------|
{ Guitar 2
{e|-------------------------------------------------------------------|
{B|--3-3-3-3-3-3-3-3-3-3-3-3-3-3-3-3-5-5-5-5-5-5-5-5------------------|
{G|--2-2-2-2-2-2-2-2-0-0-0-0-0-0-0-0-6-6-6-6-6-6-6-6------------------|
{D|--0-0-0-0-0-0-0-0-0-0-0-0-0-0-0-0-7-7-7-7-7-7-7-7-7-7-7-7-7-7-7-7--|
{A|--0-0-0-0-0-0-0-0-0-0-0-0-0-0-0-0-7-7-7-7-7-7-7-7-7-7-7-7-7-7-7-7--|
{E|--------------------------------------------------5-5-5-5-5-5-5-5--|
**Repeat Intro 4X**
(Play both guitar parts 4X)
**Repeat entire Verse part**
**Repeat Chorus**
then...
Guitar 1
e|-----------------------------------|
B|-----------------------------------|
G|--4-4-4-444-4-4-444-4-4-444-4-4----|
D|--------------------------------44-|
A|-----------------------------------|
E|-----------------------------------|

Guitar 2
{e|--------------------------------------------------------------|
{B|--------------------------------------------------------------|
{G|--4----------------------------4---------------------------4--|
{D|--4----------------------------4---------------------------4--|
{A|--2----------------------------2---------------------------2--|
{E|--------------------------------------------------------------|
{ Guitar 1
{e|--------------------------------------------------------------|
{B|--------------------------------------------------------------|
{G|--------------------------------------------------------------|
{D|-----------------------97-7-7-9-------------9---9-9p7-7-7-9--|
{A|-----------------------97-7-7-9-------------9---9-9---9-9-9--|
{E|-----------------------75-5-5-7-------------7---7-7---7-7-7--|
Guitar 2
{e|-------------------------------------------------------|
{B|-------------------------------------------------------|
{G|---------------------------4----4----4----4----4----4--|
{D|---------------------------4----4----4----4----4----4--|
{A|---------------------------2----2----2----2----2----2--|
{E|-------------------------------------------------------|
{ Guitar 1
{e|-------------------------------------------------------|
{B|-------------------------------------------------------|
{G|-------------------------------------------------------|
{D|-------------9---9-9p7-7-7-9----9----9----9----9----9--|
{A|-------------9---9-9---9-9-9----9----9----9----9----9--|
{E|-------------7---7-7---7-7-7----7----7----7----7----7--|

Guitar 2
e|------------------------------|
B|------------------------------|
G|--4-------------------2-------| Repeat
D|--4----4----5----2----2----5--| 2X
A|--2----4----5----2----0----5--|
E|-------2----3----0---------3--|
Guitar 2
{e|------------------------------------------------------------|
{B|------------------------------------------------------------|
{G|--4-------------------2---------4---------------------------|
{D|--4----4----5----2----2----5----4----4----5--5----5------5--|
{A|--2----4----5----2----0----5----2----4----5--5----5------5--|
{E|-------2----3----0---------3---------2----3--3----3------3--|
{ Guitar 1 (Don't quote me on this, but it sounds good enough)
{e|------------------------------------------------------------|
{B|------------------------------------------------------------|
{G|------4-----2---0-2-----2-----2-----4------2p0----0------0--|
{D|----4-----4---0-------2-----2-----4---4-----------0------0--|
{A|--2-----4-----------0-----0-----2-------X-------------------|
{E|------------------------------------------------------------|
**Repeat Chorus 3X**
Guitar 1
{e|--------------------------------------------------------------|
{B|--------------------------------------------------------------|
{G|--------------------------------------------------------------|
{D|----4h5----4h5--2p0----0h2----0h2---------4h5----4h5--2p0--5--|
{A|-----------------------------------4p0---------------------5--|
{E|-----------------------------------------------------------3--|
Song over.




Ваше мнение



Капча